Song name
# A B C D E F G H I J K L M N O P Q R S T U V W X Y Z

Dreamsfear - As Darkness Falls tab

Intro (Played clean)

-------0-----------0-----------------------------|
-----6---6-------6---6---------0-----------0-----|
---7-------7---7-------7-----5---5-------5---5---|
-0-----------0-------------7-------7---7-------7-| x2
-------------------------0-----------0-----------|
-------------------------------------------------|


-------------------------------------------------|
-------------------------------0-----------0-----|
-------0-----------0---------5---5-------5---5---| x2
-----5---7-------5---7-----7-------7---7-------7-|
---7-------5---7-------5-0-----------0-----------|
-0-----------0-----------------------------------|

-------------------------------------|
-------------------------------------|
-------------------------------------|
-------------------------------------|
-------------------------------------|
-0-0-0-0-0-0-0-0-0-0-0-0-0-0-0-000---|
 . . . . . . . . . . . . . . . ...


Main Riff (Guitar 1)
-----------------------------------------------|
-----------------------------------------------|
-----------------------------------------------|
---------9-7-------------------5---------------|
-2-----------10-9-------10-9-7-3-------3-2---2-|
-0-0-0-0----------0-0-0----------0-0-0-----3-0-|
   . . .          . . .          . . .


Verse
--------------------         ------------------|
--------------------         ------------------|
--------------------         ------------------|
--------------------         -4-------8--------|
-2------------------ x3      -2---5---6---9----|
-0--0-0-0-0-0-0-000-   Then  -----3-------7----|
    . . . . . . ...

                Whole verse played x4


Chorus:
------------------------------------------------|
------------------------------------------------|
------------------------------------------------|
-2--------------------4--------------------5----|
-2--------------------4--------------------5----|
-0--0-0-0-0-0-0-0-0-0-2--2-2-2-2-2-2-2-2-2-3----|
    . . . . . . . . .    . . . . . . . . .


-----------------------------------------|
-----------------------------------------|
-----------------------------------------|
-----------------------------------------|
-7-777-7--7/9\10-9-9-9-999-9/10/12\10----|
-----------------------------------------|

dreamsfear.tripod.com
Tap to rate this tab
 
# A B C D E F G H I J K L M N O P Q R S T U V W X Y Z