Song name
# A B C D E F G H I J K L M N O P Q R S T U V W X Y Z

Dreamshade - Photographs tab

-------------------------------------------------------------------------------
                      Dreamshade - Photographs
-------------------------------------------------------------------------------
Tabbed by: maglehtim
E-mail: maglehtim@gmail.com

Tuning: Standard D Tuning DGCFAD

I know it's not the whole song yet, but since there is no other tab out there at the 
moment (as far as I know atleast)
then atleast this is something that can get you going if you want to learn it.
It's all done by ear so it might not be 100% correct. If you do have corrections please 
send me an email.
I will update if I figure out more.




Intro 0:00 - 0:14
D|---------------------------------------------------------------------------|
A|---------------------------------------------------------------------------|
F|----11---11-------------------11-8---11---11-------------------9-----------|
C|--9----9----9-9-9-8-8-8-9-9-9------9----9----9-9-9-8-8-8-9-9-9---13--------|
G|---------------------------------------------------------------------------|
D|---------------------------------------------------------------------------|
PM  .    .      .     .     .        .    .      .     .     .

D|-----------------------------------------------------------------------------11-14-|
A|-----------------------------------------------------------------------11-12-------|
F|----11---11-------------------11-8---11---11----------------------8-11-------------|
C|--9----9----9-9-9-8-8-8-9-9-9------9----9----9-9-9-8-8-8-9-9-9-11------------------|
G|-----------------------------------------------------------------------------------|
D|-----------------------------------------------------------------------------------|
PM  .    .      .     .     .        .    .      .     .     .

Just typing out the chords, listen to figure out rhythm.
D|---------|---------------|-------------------------------------------------|
A|---------|-ending nr1----|-ending nr2--------------------------------------|
F|---------|---------------|-------------------------------------------------|
C|--2-4-6--|---------------|-------------------------------------------------|
G|--2-4-6--|--/7-6-4-------|--/9-7-6-4---------------------------------------|
D|--0-2-4--|---------7-6-7-|-----------6-7-----------------------------------|
PM

Melodic tapping part, listen how many times you repeat the same notes.
D|---------------------------------------------------------------------------|
A|--h19p0h12-h19p0h14-h19p0h16h17p16-h19p0h16-h19p0h14-h19p0h17p16-----------|
F|---------------------------------------------------------------------------|
C|---------------------------------------------------------------------------|
G|---------------------------------------------------------------------------|
D|---------------------------------------------------------------------------|






************************************

| /   slide up
| \   slide down
| h   hammer-on
| p   pull-off
| ~   vibrato
| +   harmonic
| x   Mute note
| b   Bend
| pb  Pre-bend
| br  Bend release
| pbr Pre-bend release
| brb Bend release bend

************************************
Tap to rate this tab
 
# A B C D E F G H I J K L M N O P Q R S T U V W X Y Z