Song name
# A B C D E F G H I J K L M N O P Q R S T U V W X Y Z

Dredg - Ireland tab

Title: Pariah
Artist: Dredg
Album: The Pariah, The Parrot, The Delusion
Tabbed by: kyuba

Tuning: Standard (E-A-D-G-B-E)



This tab was more difficult to make then I had expected :) I've worked really hard on it.
Enjoy, and send me feedback at kyuba666@gmail.com




INTRO 0:01

E----------------------------------------------------------|
B------1-------------8----------------10--------10---------|
G----2---2------9------9--------10-------10--------10------|
D--3-------3/10---10-----10--12----12-------12--------12---|
A----------------------------------------------------------|
E----------------------------------------------------------|

E----------------------------------------------------------|
B------1-------------8----------------10---------10--------|
G----2---2------9------9--------10-------10------10--------|
D--3-------3/10---10-----10--12----12-------12---12--------|
A----------------------------------------------------------|
E----------------------------------------------------------|


CHORUS 0:15

E------------------|----------------|
B------------------|----------------|
G------------------|----------------|
D------------------|----------------|
A-----------5-3----|--------3--4----|
E--6--1--5---------|--6--1----------|



POST CHORUS RIFF 0:28 
(a nice part to practice your alternate picking skills :)

E-----------------------------------15------|--------------15---------------------|
B-----18--18--17--18--17--15--15--15--15----|----18--18--17--17--15--15--15\------|
G--\14--14--14----------14--14--14----------|--14--14--------------14--14---------|
D-------------------------------------------|-------------------------------------|
A-------------------------------------------|-------------------------------------|
E-------------------------------------------|-------------------------------------|



VERSE#1 0:48 (this riff comes in the second half of the verse)

E--------------------------------|-------------------------0------|
B----3---3---3------3-3-----3-3--|----3---3---3------3-3-----3----|
G------2----------2-------2------|------2----------2--------------|
D--0-------0---------------------|--0-------0---------------------|
A---------------1-------3--------|---------------1-------3--------|
E--------------------------------|--------------------------------|



PRE-CHORUS 1:02 
(it's almost the same riff as the intro, except the ending)

E----------------------------------------------------------|
B------1-------------8----------------10--------10---------|
G----2---2------9------9--------10-------10--------10------|
D--3-------3/10---10-----10--12----12-------12--------12---|
A----------------------------------------------------------|
E----------------------------------------------------------|

E----------------------------------------------------------|
B------1-------------8-----------------10------------------|
G----2---2------9------9--------10-----10---12--10---------|
D--3-------3/10---10-----10--12----12--12---12--12---------|
A----------------------------------------------------------|
E----------------------------------------------------------|



CHORUS 1:16

E------------------|----------------|
B------------------|----------------|
G------------------|----------------|
D------------------|----------------|
A-----------5-3----|--------3--4----|
E--6--1--5---------|--6--1----------|




BRIDGE 1:29
(this part consists mainly of layerd vocals and synths,
 but you can hear the guitar playing along the vocal melody)

E--------------------------------------------------------------------------------------------------|
G--15--15--14--14--12--12--14-12----14--14--12--12--10--10--12-10----12--12--10--10--9---9--7---7--|
D--------------------------------------------------------------------------------------------------|
A----13------12------12---------12----12------10------10---------10----10------8-------7------7----|
B--------------------------------------------------------------------------------------------------|
E--------------------------------------------------------------------------------------------------|



you can tremolo pick these notes to play the "oooh ooh" 

E----------------------------------------|
B-11-10-8---10-8-6---8-6-5-3-------------|
G----------------------------------------|
D----------------------------------------|
A----------------------------------------|
E----------------------------------------|




SOLO 1:59

E----------------------------------------------------|
B-/15-15\13-13\10-10b(11)r-8-6-----------------------|
G------------------------------5b(6)r-5-7b(8)-8\-----|
D----------------------------------------------------|
A----------------------------------------------------|
E----------------------------------------------------|



BREAK: 2:13
(this part has the guitar riff from the verse in the background + another one,
which is played on some kind of bajo, or a similar guitar. It goes mostly like this:)

E-----------17----------------17-17---------|
B--15----15----15-------15-15-------15------|
G-----14----------14-------------------14---|
D-------------------------------------------|
A--------------------13---------------------|
E-------------------------------------------|



VERSE #2 2:41
(same riff as in the first verse)

E--------------------------------|-------------------------0------|
B----3---3---3------3-3-----3-3--|----3---3---3------3-3-----3----|
G------2----------2-------2------|------2----------2--------------|
D--0-------0---------------------|--0-------0---------------------|
A---------------1-------3--------|---------------1-------3--------|
E--------------------------------|--------------------------------|



PRE-CHORUS 2:55
(again it's the same part as the intro, but with a slightly different ending)

E----------------------------------------------------------|
B------1-------------8----------------10--------10---------|
G----2---2------9------9--------10-------10--------10------|
D--3-------3/10---10-----10--12----12-------12--------12---|
A----------------------------------------------------------|
E----------------------------------------------------------|

E----------------------------------------------13----------|
B------1-------------8-------------------17----------------|
G----2---2------9------9--------10-------------------------|
D--3-------3/10---10-----10--12----12/15----15-------------|
A----------------------------------------------------------|
E----------------------------------------------------------|



CHORUS 3:08

E------------------|----------------|
B------------------|----------------|
G------------------|----------------|
D------------------|----------------|
A-----------5-3----|--------3--4----|
E--6--1--5---------|--6--1----------|



POST-CHORUS 3:22

E-----------------------------------15------|--------------15---------------------|
B-----18--18--17--18--17--15--15--15--15----|----18--18--17--17--15--15--15\------|
G--\14--14--14----------14--14--14----------|--14--14--------------14--14---------|
D-------------------------------------------|-------------------------------------|
A-------------------------------------------|-------------------------------------|
E-------------------------------------------|-------------------------------------|


E-----------------------------------15------|-------------------------------------|
B-----18--18--17--18--17--15--15--15--15----|----18----------14-------------------|
G--\14--14--14----------14--14--14----------|-------------------------------------|
D-------------------------------------------|-------------------------------------|
A-------------------------------------------|-------------------------------------|
E-------------------------------------------|-------------------------------------|





| ^  bend
| /  slide up
| \  slide down
| h  hammer-on
| p  pull-off
| ~  vibrato
| *  harmonic
| x  Mute note
Tap to rate this tab
 
# A B C D E F G H I J K L M N O P Q R S T U V W X Y Z