Song name
# A B C D E F G H I J K L M N O P Q R S T U V W X Y Z

Dredg - Stone By Stone tab

Hey,hey,hey
now here's what I think about dredg's stone by stone:

Intro (i think with chorus and reverb or something)
|---------------------|
|-3--5--6--8--10--10\-|
|---------------------|
|---------------------|
|---------------------|
|---------------------|

|-----------------|
|-3--5--6--8--3---|
|-----------------|
|-----------------|
|-----------------|
|-----------------|

|--8---6---5-5----|
|-10---8---6-6----|
|-----------------|
|-----------------|
|-----------------|
|-----------------|

Verse

Fill 1 
|--------------|
|--3---6---3---|
|--------------|
|--------------|
|--------------|
|--------------|

Fill 2
|--1---5---1---|
|--3---6---3---|
|--------------|
|--------------|
|--------------|

Chorus (Tremolo "shrubbing")
|-1---0---0---1---|
|-3---1---1---3---|
|-2---0---2---3---|
|-0---2---2---x---|
|-----3---0---1---|
|-----------------| 1x

|-1---0---0---0---|
|-3---1---1---1---|
|-2---0---2---0---|
|-0---2---2---2---|
|-----3---0---3---|
|-----------------| 1x

Verse 2 (with Fill one and two)

Chorus 2

Bridge 1st Part
|---------------------|
|-3--5--6--8--10--10\-|
|---------------------|
|---------------------|
|---------------------|
|---------------------|

|-----------------|
|-3--5--6--8--3---|
|-----------------|
|-----------------|
|-----------------|
|-----------------|

|--8---6---5-5----|
|-10---8---6-6----|
|-----------------|
|-----------------|
|-----------------|
|-----------------|

|-----------------|
|-3--5--6--8--3---|
|-----------------|
|-----------------|
|-----------------|
|-----------------|

Now the Instrumental Bridge...
i don't know...and it's a difficult rythm...

Chorus 3 and 4

And the drum solo at the end ;)
Tap to rate this tab
 
# A B C D E F G H I J K L M N O P Q R S T U V W X Y Z