Dredg - Bug Eyes tab

Title: Bug Eyes
Artist: Dredg
Album: Catch Without Arms
Tabbed by: TinoJam!
Tuning: Standard

intro:
Fast picking

guitar1
e|--------------------------------10-10-10-10-13-13-13-13-15-15-15-15-|
B|-8-8-8-8-10-10-10-10-11-11-11-11------------------------------------|
G|--------------------------------------------------------------------|
D|--------------------------------------------------------------------| 
A|--------------------------------------------------------------------|
E|--------------------------------------------------------------------|

e|--18-18-18-18--|
B|---------------|
G|---------------|
D|---------------| 3x
A|---------------|
E|---------------|

e|--------------------------------10-10-10-10-13-13-13-13-15-15-15-15|
B|-8-8-8-8-10-10-10-10-11-11-11-11-----------------------------------|
G|-------------------------------------------------------------------|
D|-------------------------------------------------------------------| 
A|-------------------------------------------------------------------|
E|-------------------------------------------------------------------|

e|--18-18-18-18--|
B|---------------|
G|---------------|
D|---------------|2x 
A|---------------|
E|---------------|

guitar2
e|-------------------------------------------------------------------|
B|-------------------------------------------------------------------|
G|-12-12-12-12-12-12-12-12--10-10-10-10-10-10-10-10------------------|
D|-x--x--x--x--x--x--x--x---x--x--x--x--x--x--x--x-------------------| 2x
A|-10-10-10-10-10-10-10-10--8--8--8--8--8--8--8--8-------------------|
E|-------------------------------------------------------------------|

guitar1
e|--------------------------------10-10-10-10-13-13-13-13-13-13-13-13-|
B|-8-8-8-8-10-10-10-10-11-11-11-11-----------------------------------|
G|-------------------------------------------------------------------|
D|-------------------------------------------------------------------| 
A|-------------------------------------------------------------------|
E|-------------------------------------------------------------------|

guitar2
e|-------------------------------------------------------------------|
B|-------------------------------------------------------------------|
G|-12-12-12-12-12-12-12-12--10-10-10-10-10-10-10-10------------------|
D|-x--x--x--x--x--x--x--x---x--x--x--x--x--x--x--x--8-8-8-8-8-8-8-8--| 
A|-10-10-10-10-10-10-10-10--8--8--8--8--8--8--8--8--8-8-8-8-8-8-8-8--|
E|--------------------------------------------------6-6-6-6-6-6-6-6--|

e|-------------------------------------------------------------------|
B|-------------------------------------------------------------------|
G|-------------------------------------------------------------------|
D|-3-3-3-3-3-3-3-3---------------------------------------------------| 
A|-3-3-3-3-3-3-3-3---------------------------------------------------|
E|-1-1-1-1-1-1-1-1---------------------------------------------------|

verse
e|-------------------------------------------------------------------|
B|-------------------------------------------------------------------|
G|-12-12-12-12-12-12-12-12--10-10-10-10-10-10-10-10------------------|
D|-x--x--x--x--x--x--x--x---x--x--x--x--x--x--x--x-------------------| 2x
A|-10-10-10-10-10-10-10-10--8--8--8--8--8--8--8--8-------------------|
E|-------------------------------------------------------------------|
    Bring back those good old days...


e|-------------------------------------------------------------------|
B|--11-11-11-11-11-11-11-11----10-10-10-10-10-10-10-10---------------|
G|--x--x--x--x--x--x--x--x-----x--x--x--x--x--x--x--x----------------|
D|--8--8--8--8--8--8--8--8-----8--8--8--8--8--8--8--8----------------|
A|-------------------------------------------------------------------|
E|-------------------------------------------------------------------|

e|-----------------------------------------8--8--8--8-----|
B|--11-11-11-11-11-11-11-11----10-10-10-10-x--x--x--x-----|
G|--x--x--x--x--x--x--x--x-----x--x--x--x--x--x--x--x-----| REPEAT
D|--8--8--8--8--8--8--8--8-----8--8--8--8--8--8--8--8-----|  
A|--------------------------------------------------------|
E|--------------------------------------------------------|

e|------------------------------------------------10-10-10-10-10-10--|
B|-8-8-8-8-8-8-10-10-10-10-10-10-11-11-11-11-11-11-------------------|
G|-------------------------------------------------------------------|
D|-------------------------------------------------------------------| 
A|-------------------------------------------------------------------|
E|-------------------------------------------------------------------|
     Gonna need a home      You'd expect the same now wouldn't


       2x            2x           
e|-6-6-6-6-6-6----1-1-1-1-1-1----------------------------------------|
B|-6-6-6-6-6-6----1-1-1-1-1-1----------------------------------------|
G|-7-7-7-7-7-7----2-2-2-2-2-2----------------------------------------|
D|-8-8-8-8-8-8----3-3-3-3-3-3----------------------------------------| 
A|-8-8-8-8-8-8----3-3-3-3-3-3----------------------------------------|
E|-6-6-6-6-6-6----1-1-1-1-1-1----------------------------------------- 
   you,           wouldn't you?




Chorus:
Chords                                                                      

e|------|       e|--3---|     e|--6---|      e|--1---|
B|------|       B|--3---|     B|--6---|      B|--1---|
G|--8---|       G|--3---|     G|--7---|      G|--2---|
D|--8---|       D|--5---|     D|--8---|      D|--3---|
A|--6---|       A|--5---|     A|--8---|      A|--3---|
E|------|       E|--3---|     E|--6---|      E|--1---|

Your journey back to birth its haunting you it's haunting you 
Your departure from the earth, its haunting you, it's haunting you



piano part:

e|-----11--10---------------10---------------10----------------------|
B|--------------11------13--------11----13--------10-11p10-----------|
G|-12-------------------------------------------------------12---10--|
D|-------------------------------------------------------------------| 
A|-------------------------------------------------------------------|
E|-------------------------------------------------------------------|

It's been ten years strong, thats much too long, 
It's time to do something good for my health 
Time to do somethin' good for myself... 

----------------------------------------------------------------------------

Verse:
Bring back those good ol' days 
Nothing feels right 
Nothing ever goes my way 
I threw my future away 
Now I walk alone 
Out here in the cold 
Wandering astray 
Where's my future? 
I'm gonna need a home 
You'd expect the same, now wouldn't you, wouldn't you?

Chorus:
Your journey back to birth its haunting you it's haunting you 
Your departure from the earth, its haunting you, it's haunting you

Verse2:
Only those who accept will find that acceptance in return 
When you've been trimmed down like hedges,and told just to sit, and wilt, and spit 
at each other from a distance 
With constant resistance from you 
Gonna need a home 
You'd expect the same now wouldn't you, wouldn't you?

Chorus:
Your journey back to birth is haunting you, it's haunting you 
Your departure from the earth is haunting you, it's haunting you

Bridge:
It's been ten years strong, thats much too long 
It's time to do something good for my health 
Time to do somethin' good for myself 
It's been ten years strong, thats much too long 
It's time to do something good for my health 
Time to do somethin' good for myself 
I've wasted all this time, I've wasted all this time

Chorus:
Your journey back to birth is haunting you, it's haunting you 
You departure from the earth is haunting you, it's haunting you

Your journey back to birth is haunting you, it's haunting you 
Your departure from the earth is haunting you, it's haunting you



have fun... :)

Tap to rate this tab
 
# A B C D E F G H I J K L M N O P Q R S T U V W X Y Z