Song name
# A B C D E F G H I J K L M N O P Q R S T U V W X Y Z

Dredg - Kalathat tab

Dredg
Chuckles and Mr. Squeezy
Guitar Tab
Kalathat (Standard EADGBe)
Tabbed by Chris Henry

Intro
e|-----------------------------------------|
B|---0----0----0----0----0----0----0-------|
G|----0----0----0----0----0----0----0------| 3x
D|--------------------------0---------0----|
A|-7----6----5----4----3---------3---------|
E|-----------------------------------------|

e|---------------------|
B|---0----0----0----0--|
G|----0----0----0----0-|
D|------0--------------| 2x
A|---------------------|
E|-3---------3----0----|

Verse
e|-----------------------------------------|
B|---0----0----0----0----0----0----0----0--|
G|----0----0----0----0----0----0----0----0-|
D|-----------------------------------------|
A|-7----5----2----3------------------------|
E|---------------------3----5----7----3----|

e|------------------------------------|
B|---0----0----0----0----0----0----0--|
G|----0----0----0----0----0----0----0-|
D|-0-------------------0--------------|
A|------------------------------------| repeat both 4x
E|------3----0----3---------3----0----|

Chorus
e|-----------------------------------------|
B|---0----0----0----0----0----0----0----0--|
G|----0----0----0----0----0----0----0----0-| 3x
D|-----------------------------------------|
A|-7----5----2----3------------------------|
E|---------------------3----5----7----3----|

e|-----------------------------------------|
B|---0----0----0----0----0----0----0-------|
G|----0----0----0----0----0----0----0------|
D|--------------------------0---------0----| 1x
A|-7----6----5----4----3---------3---------|
E|-----------------------------------------|

e|---------------------|
B|---0----0----0----0--|
G|----0----0----0----0-| 2x
D|------0--------------|
A|---------------------|
E|-3---------3----0----|


VERSE part
CHORUS part

Bridge/Outro
e|---------------------------------------------------------------------------------|
B|---0----0----0----0----0----0----0----0----0----0----0----0----0----0----0----0--|
G|----0----0----0----0----0----0----0----0----0----0----0----0----0----0----0----0-|
D|------0---------0---------0---------0-----------------------------0---------0----| 4x
A|-2---------0---------2---------2--------------7---------7------------------------|
E|-0---------2---------3---------3---------5---------5---------3---------3---------|

e|-------------------------------------------------------------|
B|---0----0----0----0----0----0----0----0----0----0----0----0--|
G|----0----0----0----0----0----0----0----0----0----0----0----0-| 1x
D|------0---------0---------0---------0---------0---------0----|
A|-2---------0---------2---------2-----------------------------|
E|-0---------2---------3---------3---------3---------3---------|

e|-----------------------------------------|
B|---0----0----0----0----0----0----0-------|
G|----0----0----0----0----0----0----0------| 3x
D|--------------------------0---------0----|
A|-7----6----5----4----3---------3---------|
E|-----------------------------------------|

e|---------------------|
B|---0----0----0----0--|
G|----0----0----0----0-|
D|------0--------------| 10x gradually slowing down
A|---------------------|
E|-3---------3----0----|


end on low G.
Tap to rate this tab
# A B C D E F G H I J K L M N O P Q R S T U V W X Y Z