Guitaretab - guitar tabs
Song name
# A B C D E F G H I J K L M N O P Q R S T U V W X Y Z

Dredg - Leitmotif tab

#----------------------------------PLEASE NOTE--------------------------------#
#This file is the author's own work and represents their interpretation of the#
#song. You may only use this file for private study, scholarship, or research.#
#-----------------------------------------------------------------------------#


Artist: Dredg
Album: Leitmotif

Tabbed By: Marty Silbiger
email me at slodeth@iname.com with questions, comments, etc...
Created: Jan 4, 2002


This is my monstrous tab for the Dredg album, Leitmotif.  Considering the size 
of this project, I obviously didn't get each note...but everything I have here 
should sound fine.  The band definitely has two guitar parts going in many of 
the songs, so I tried to include both when applicable.  I also tried to include 
correct timing for the riffs, but you'll need to play along with the CD to get a
good feel for it.  Now, enough words...on with the notes!


********************************
*** Movement I - 45N, 180W ***
********************************

:30   Riff A
E|-------12--12---10|-10--10-----------|------------------|------------------|
B|-10-10------------|---------10--11-10|-10--10--10--10---|------------------|
G|------------------|------------------|------------------|--9-10-12--10-9---|
D|------------------|------------------|------------------|------------------|
A|------------------|------------------|------------------|------------------|
D|------------------|------------------|------------------|------------------|
x11

1:29  Riff B                                Riff C
E|------------------|------------------| |-----------------|------------------|
B|------------------|------------(11)--| |-10-10-----------|--------------11--|
G|-10-10-------10-9-|-12-10-9-10--10---| |-10-10-----10-9--|-12-10-9-10---10--|
D|------------------|------------------| |-----------------|------------------|
A|------------------|------------------| |-----------------|------------------|
D|------------------|------------------| |-----------------|------------------|
x4                                        x8

E|------------------|------------------|------------------|------------------|
B|------------------|------------------|------------------|------------------|
G|----------10------|--10--9-----------|----------10------|---10----9--------|
D|--10--------------|------------------|--9---------------|------------------|
A|--10--------------|------------------|--9---------------|------------------|
D|--10--------------|------------------|--9---------------|------------------|

then Riff C x6, then Riff B x2, then Riff C x2

2:31  Riff D (chorus)
E|------------------|------------------|------------------|------------------|
B|------------------|------------------|------------------|------------------|
G|----------10------|--10--9-----------|----------10------|---10----9--------|
D|--10--------------|------------------|--9---------------|------------------|
A|--10--------------|------------------|--9---------------|------------------|
D|--10--------------|------------------|--9---------------|------------------|

E|------------------|------------------|------------------|------------------|
B|---------10--(8)--|------------------|------------------|------------------|
G|------------------|------------------|------------------|------------------|
D|-8----------------|------------------|--0---------------|------------------|
A|-8----------------|------------------|--0---------------|------------------|
D|-8----------------|------------------|--0---------------|------------------|
x2

then jam on that D5 chord for an extra two measures, then...

E|------------------|------------------|------------------|------------------|
B|------------------|------------------|--13--10----------|------------------|
G|-------------10-9-|-12-10-9-10-10----|---9--10-----10-9-|-12-10-9-10--10---|
D|--0--0------------|------------------|--0---0-----------|------------------|
A|--0--0------------|------------------|--0---0-----------|------------------|
D|--0--0------------|------------------|--0---0-----------|------------------|

E|------------------|------------------|------------------|------------------|
B|--13-10-----------|------------------|--13--10----------|-------------11---|
G|---9-10------10-9-|-12-10-9-10-10----|---9--10-----10-9-|-12-10-9-10--10---|
D|--0--0------------|------------------|--0---0-----------|------------------|
A|--0--0------------|------------------|--0---0-----------|------------------|
D|--0--0------------|------------------|--0---0-----------|------------------|

then Riff C, then Riff B x2, then Riff C x3, then Riff Bx3, then Riff C...
then riff D x3, then jam on D5 until the end.


***************
*** Lechium ***
***************


just jam on the power chords...add the riffs after two repeats
E|------------------|------------------|------------------|------------------|
B|10-10-------------|-(10--8---7)------|--13-13-----------|-(13---11--10)----|
G|-7--7-------------|------------------|--10-10-----------|------------------|
D|------------------|------------------|------------------|------------------|
A|------------------|------------------|------------------|------------------|
D|------------------|------------------|------------------|------------------|

E|------------------|------------------|------------------|------------------|
B|-10--10-----------|--(10---9)--------|---12-12----------|--(12--10)--------|
G|--8---8-----------|------------------|---10-10----------|------------------|
D|------------------|------------------|------------------|------------------|
A|------------------|------------------|------------------|------------------|
D|------------------|------------------|------------------|------------------|
that's the whole song...


**************************************
*** Movement II - Crosswind Minuet ***
**************************************


One of the guitar parts tremolo picks on the open D-string throughout the song.


:00  Riff A (intro)
E|------------------|------------------|------------------|------------------|
B|------------------|------------------|------------------|------------------|
G|--9b11------------|------------7--9--|-7----------------|---------10--9----|
D|------------------|------------------|------------------|------------------|
A|------------------|------------------|------------------|------------------|
D|------------------|------------------|------------------|------------------|

E|------------------|------------------|------------------|------------------|
B|------------------|------------------|------------------|-----------10-8---|
G|-10---------------|------10/12\10----|-------7/9\7------|------------------|
D|------------------|------------------|------------------|------------------|
A|------------------|------------------|------------------|------------------|
D|------------------|------------------|------------------|------------------|

E|------------------|------------------|------------------|------------------|
B|-10---------------|----------10b12r10|------------------|-----8-7-8-10-8---|
G|------------------|------------------|------------------|------------------|
D|------------------|------------------|------------------|------------------|
A|------------------|------------------|------------------|------------------|
D|------------------|------------------|------------------|------------------|

E|------------------|------------------|--11\-------------|------------------|
B|-10---------------|----------11\-----|------------------|------------------|
G|------------------|------------------|------------------|------------------|
D|------------------|------------------|------------------|------------------|
A|------------------|------------------|------------------|------------------|
D|------------------|------------------|------------------|------------------|


:28  Riff B (verse riff)
E|------------------|------------------|------------------|------------------|
B|------------------|------------------|------------------|------------------|
G|-----9p7---7------|------------------|------------------|------------------|
D|------------------|-------------8-8--|---8-7-7----------|--------7---------|
A|------------------|------------------|------------------|-----8-----8p7-7--|
D|------------------|------------------|------------------|------------------|

E|------------------|------------------|------------------|------------------|
B|------------------|------------------|------------------|------------------|
G|-----9p7---7------|-----------10--9--|--10--------------|---7--9--5--7--7--|
D|------------------|------------------|------------------|------------------|
A|------------------|------------------|------------------|------------------|
D|------------------|------------------|------------------|------------------|

E|------------------|------------------|------------------|------------------|
B|------------------|------------------|------------------|------------------|
G|-----9p7---7------|------------------|------------------|------------------|
D|------------------|-------------8-8--|---8-7-7----------|--------7---------|
A|------------------|------------------|------------------|-----8-----8p7-7--|
D|------------------|------------------|------------------|------------------|

E|------------------|------------------|------------------|------------------|
B|------------------|------------------|------------------|-10-8-7-8-7h8p7---|
G|-----9p7---7------|-----------10--9--|--10--------------|------------------|
D|------------------|------------------|------------------|------------------|
A|------------------|------------------|------------------|------------------|
D|------------------|------------------|------------------|------------------|

E|------------------|------------------|------------------|------------------|
B|------------------|------------------|------------------|------------------|
G|-7---9p7--7-------|------10p9--9-----|------12p10--10---|--9-10-12-10-9-7--|
D|------------------|------------------|------------------|------------------|
A|------------------|------------------|------------------|------------------|
D|------------------|------------------|------------------|------------------|

E|------------------|------------------|------------------|------------------|
B|------------------|------------------|------------------|-------10-8-------|
G|-7---9p7--7-------|------10p9--9-----|------12p10--10---|--9-10------10-9--|
D|------------------|------------------|------------------|------------------|
A|------------------|------------------|------------------|------------------|
D|------------------|------------------|------------------|------------------|

E|-10-10--12p10-10--|----13p12-12--10--|-----10--15p13-13-|--12-12---12h13-13|
B|------------------|------------------|-13---------------|------------------|
G|------------------|------------------|------------------|------------------|
D|------------------|------------------|------------------|------------------|
A|------------------|------------------|------------------|------------------|
D|------------------|------------------|------------------|------------------|

E|-10-10--12p10-10--|----13p12-12--10--|-----10--15p13-13-|--12-12---12h13-13|
B|------------------|------------------|-13---------------|------------------|
G|------------------|------------------|------------------|------------------|
D|------------------|------------------|------------------|------------------|
A|------------------|------------------|------------------|------------------|
D|------------------|------------------|------------------|------------------|

E|-10---------------|------------------|------------------|------------------|
B|------------------|------------------|------------------|------------------|
G|------------9p7-7-|----------10p9-9--|-----------12p10--|-9--9---10--10----|
D|------------------|------------------|------------------|------------------|
A|------------------|------------------|------------------|------------------|
D|------------------|------------------|------------------|------------------|

E|------------------|------------------|------------------|------------------|
B|------------------|------------------|------------------|------------------|
G|-7----------9p7-7-|----------10p9-9--|-----------12-----|------------------|
D|------------------|------------------|------------------|------------------|
A|------------------|------------------|------------------|------------------|
D|------------------|------------------|------------------|------------------|


E|------------------|------------------|------------------|------------------|
B|------------------|------------------|------------------|------------------|
G|--11~~~-----------|------------------|---x--------------|------------------|
D|------------------|------------------|------------------|------------------|
A|------------------|------------------|------------------|------------------|
D|------------------|------------------|------------------|------------------|

1:44  Riff C (chorus)
E|------------------|------------------|------------------|------------------|
B|------------------|----------------11|------------------|------------------|
G|----11-11--10-----|-----11-11p10-10--|---11-11p10-10----|----12--12p10-10--|
D|-0----------------|--0---------------|-0----------------|-8----------------|
A|-0----------------|--0---------------|-0----------------|-8----------------|
D|-0----------------|--0---------------|-0----------------|-8----------------| 
  x4

2:10 Riff D (vocals come in)
E|------------------|------------------|------------------|------------------|
B|------------------|----------------10|------------------|--10--10p8--8-----|
G|--12--12p10-------|---12--12p10--10--|--12--12p10--10---|------------------|
D|------------------|------------------|------------------|------------------|
A|------------------|------------------|------------------|------------------|
D|------------------|------------------|------------------|------------------|
  x2

2:22 Riff E
E|------------------|------------------|------------------|------------------|
B|-11--11p10--10----|-----11--11p10-8--|--11---11p10--10--|------------------|
G|------------------|------------------|------------------|---12--12p10------|
D|------------------|------------------|------------------|------------------|
A|------------------|------------------|------------------|------------------|
D|------------------|------------------|------------------|------------------|

E|------------------|------------------|-10~--------------|--12~-------------|
B|-11--11p10--10----|-11-13-11-10-11-10|------------------|------------------|
G|------------------|------------------|------------------|------------------|
D|------------------|------------------|------------------|------------------|
A|------------------|------------------|------------------|------------------|
D|------------------|------------------|------------------|------------------|

2:35 Riff F
E|------------------|------------------|------------------|------------------|
B|------------------|------------------|------10----------|------------------|
G|----10------------|------------------|------------------|----9-------------|
D|--0---------------|--8---------------|--0---------------|--8---------------|
A|--0---------------|--8---------------|--0---------------|--8---------------|
D|--0---------------|--8---------------|--0---------------|--8---------------|
  x4

then Riff D x2, then riff E, then:

3:40 Riff G
E|-13---------------|--12--------------|-10---------------|------------------|
B|------------------|------------------|------------------|-13---------------|
G|------------------|------------------|------------------|------------------|
D|------------------|------------------|------------------|------------------|
A|------------------|------------------|------------------|------------------|
D|------------------|------------------|------------------|------------------|

E|------------------|------------------|------------------|------------------|
B|-10---------------|------------------|------------------|------------------|
G|------------------|------------------|------------------|------------------|
D|------------------|------------------|------------------|------------------|
A|------------------|------------------|------------------|------------------|
D|------------------|------------------|------------------|------------------|

rests for 12 more measures...

4:09 Riff H
E|------------------|------------------|------------------|------------------|
B|------------------|------------------|------------------|------------------|
G|------------------|------------------|------------------|------------------|
D|-(7)--------------|--(7)-------------|-(7)--------------|-(7)--------------|
A|-(9)--------------|--(9)-------------|-(9)--------------|-(9)--------------|
D|-0-0-0--10p0-8p0--|-0-0-0--10p0-8----|-0-0-0--10p0-8p0--|-0-0-0--10p0-8----|
add the inverted power chords after two runs...listen to the song for the rest

then Riff F x4, then

5:18 Riff I
E|--------10--8-----|------------------|------------------|------------------|
B|------------------|------------------|------------------|-------5-6-8-6-5-6|
G|---7--------------|---9--------------|------------------|---7--------------|
D|------------------|------------------|---10-------------|------------------|
A|------------------|------------------|------------------|------------------|
D|------------------|------------------|------------------|------------------|
   x4 (with variations and extra layers)

then play this variation on the intro...

E|------------------|------------------|------------------|------------------|
B|------------------|------------------|------------------|------------------|
G|-----9p7---7------|-----------10--9--|--10--------------|---7--9--5--7--7--|
D|------------------|------------------|------------------|------------------|
A|------------------|------------------|------------------|------------------|
D|------------------|------------------|------------------|------------------|

E|------------------|------------------|------------------|------------------|
B|------------------|------------------|------------------|------------------|
G|-----9p7---7------|------------------|------------------|------------------|
D|------------------|-------------8-8--|---8-7-7----------|--------7---------|
A|------------------|------------------|------------------|-----8-----8p7-7--|
D|------------------|------------------|------------------|------------------|

E|------------------|------------------|------------------|------------------|
B|------------------|-----------10-8---|-10---------------|--10b12 12r10-----|
G|-----9p7---7------|------------------|------------------|------------------|
D|------------------|------------------|------------------|------------------|
A|------------------|------------------|------------------|------------------|
D|------------------|------------------|------------------|------------------|

E|------------------|------------------|------------------|------------------|
B|------------------|------------------|------------------|------------------|
G|-----9p7---7------|------------------|------------------|------------------|
D|------------------|-------------8-8--|---8-7-7----------|--------7---------|
A|------------------|------------------|------------------|-----8-----8p7-7--|
D|------------------|------------------|------------------|------------------|

E|------------------|------------------|------------------|------------------|
B|------------------|------------------|------------------|------------------|
G|--9b11------------|------------7--9--|-7----------------|---------10--9----|
D|------------------|------------------|------------------|------------------|
A|------------------|------------------|------------------|------------------|
D|------------------|------------------|------------------|------------------|

E|------------------|------------------|------------------|------------------|
B|------------------|------------------|------------------|-10-8-7-8-7h8p7---|
G|-10---------------|------10/12\10----|-------7/9\7------|----------------7-|
D|------------------|------------------|------------------|------------------|
A|------------------|------------------|------------------|------------------|
D|------------------|------------------|------------------|------------------|

*********************
*** Traversing... ***
*********************

All piano parts.

********************
*** Intermission ***
********************


  Riff A (chords)
I can't tell exactly what chords he's playing, but here's my progression:
E|--3---------------|--2---------------|--2---------------|--0---------------|
B|--0---------------|--0---------------|--0---------------|--4---------------|
G|--0---------------|--0---------------|--4---------------|--5---------------|
D|--2---------------|--2---------------|-(4)--------------|--4---------------|
A|------------------|------------------|------------------|------------------|
D|------------------|------------------|------------------|------------------|
   x6


 Riff B
:50  I'm not sure how much of this is bass or Guitar 2...
E|------------------|------------------|------------------|------------------|
B|----7-------------|------7----8-8--8-|-------7----------|---------7---8--8-|
G|-9------9----9----|---9--------------|-----------9--9---|-------9----------|
D|------------------|------------------|--(10)------------|--(10)------------|
A|------------------|------------------|------------------|------------------|
D|------------------|------------------|------------------|------------------|

E|------------------|------------------|------------------|------------------|
B|----7-------------|------7----8-8--8-|-------7----------|------------------|
G|-9------9----9----|---9--------------|-----------9--9---|--7--7-----5---5--|
D|------------------|------------------|--(10)------------|------------------|
A|------------------|------------------|------------------|------------------|
D|------------------|------------------|------------------|------------------|
  x2, then play chord progression again


Riff C
1:06 a second guitar comes in...
E|--15---12---------|--15---12---------|------------------|------------------|
B|------------------|------------------|--15--12----------|--15--12----------|
G|----------9-----9-|----------9------9|---------9-------9|---------9-------9|
D|-----------(9-7)--|------------(9-7)-|-----------(9-7)--|-----------(9-7)--|
A|------------------|------------------|------------------|------------------|
D|------------------|------------------|------------------|------------------|
   x4


Riff D
1:37
E|--19--12----------|--17---12---------|--15--12----------|--14--12----------|
B|------------------|------------------|------------------|------------------|
G|---------9-------9|-----------9-----9|---------9------9-|---------9------9-|
D|-----------(9-7)--|------------(9-7)-|-----------(9-7)--|-----------(9-7)--|
A|------------------|------------------|------------------|------------------|
D|------------------|------------------|------------------|------------------|
   x2, then play chord progression

at 2:11, the same riffs repeat, but in a different order...listen to the
song to figure out when to play what.  There's nothing new for the rest of
the track.


*****************************
*** Movement III - Lyndon ***
*****************************


     Riff A
E|-----------2------|----0-------2-----|------------2-----|----0--------2----|
B|-----------0------|----0-------0-----|------------0-----|----0--------0----|
G|-----------0------|----0-------0-----|------------0-----|----0--------0----|
D|-----------2------|----2-------2-----|------------2-----|----2--------2----|
A|--2---------------|------------------|----2-------------|------------------|
D|------------------|------------------|------------------|------------------|
   x2

:18  Riff B (chord progression)
E|-----------2------|----0-------2-----|----0-------------|--3----------0----|
B|-----------0------|----0-------0-----|----0-------------|--0----------0----|
G|-----------0------|----0-------0-----|----0-------------|--0----------0----|
D|-----------2------|----2-------0-----|----2-------------|--2----------2----|
A|--2---------------|-------------3-2-0|--3---------------|------------------|
D|------------------|------------------|------------------|------------------|
repeats until :, with slight variations

[ Tab from: http://www.guitaretab.com/d/dredg/34785.html ]
                                            E|------------------|
                                            B|------------------|
           lead in with:                    G|--12--9------9----|
             at :49                         D|---------10-------|
                                            A|------------------|
                                            D|------------------|
:51  Riff D
E|------------------|------------------|------------------|------------------|
B|-12h13p12---------|------------------|------------------|------------------|
G|----------11h12p11|------------------|------------------|------------------|
D|------------------|-9h10p9--7---7----|--7/10------------|--10h12-12-12p10--|
A|------------------|------------------|------------------|------------------|
D|------------------|------------------|------------------|------------------|
   x9, then just play 


E|------------------|                  |------------------|------------------|
B|-12h13p12-12h13p12|  until 2:11,     |-10--12--13--15---|-13--12--10-12----|
G|------------------|   then play      |------------------|------------------|
D|------------------|                  |------------------|---------------9--|
A|------------------| (hit first six   |------------------|------------------|
D|------------------|  notes thrice)   |------------------|------------------|

E|------------------|------------------|------------------|------------------|
B|------------------|------------------|------------------|------------------|
G|----------11^---9-|--12--------14p12-|--12-----11--12---|------------------|
D|------------------|------------------|----------------14|--12---14-12-10---|
A|------------------|------------------|------------------|------------------|
D|------------------|------------------|------------------|------------------|


E|-----------14^-12-|-15----17-15-14-15|14-12-------------|------------------|
B|------------------|------------------|------------------|------------------|
G|------------------|------------------|------11--12--11--|-------7h9p7------|
D|-9----------------|------------------|------------------|-12-----------10--|
A|------------------|------------------|------------------|------------------|
D|------------------|------------------|------------------|------------------|

then start playing the intro riff to the next song...

*** Penguins in the Desert ***

   Riff A
E|------------------|------------------|------------------|------------------|
B|------------------|------------------|------------------|------------------|
G|------------------|---5-5-5----------|------------------|-2/5-5-5-5--------|
D|-4-4-4-4-x-x-x-x--|-x-5-5-5-x-2-2-2--|-4-4-4-4-x-x-x-x--|-2/5-5-5-5-2-2-2--|
A|-4-4-4-4-x-x-x-x--|-x-3-3-3-x-2-2-2--|-4-4-4-4-x-x-x-x--|-0/3-3-3-3-2-2-2--|
D|-4-4-4-4-x-x-x-x--|-x-------x-2-2-2--|-4-4-4-4-x-x-x-x--|-----------2-2-2--|
   just repeat this riff until...

1:23  Riff B
E|------------------|--7----5----------|-4--4---5-4-------|------------------|
B|-7----------------|--7----7----------|-5--5-------------|--7---------------|
G|------------------|------------------|------------------|------------------|
D|-4----------------|------------------|------------------|--4---------------|
A|------------------|------------------|------------------|------------------|
D|------------------|------------------|------------------|------------------|
   x8, with slight variation

3:00  Riff C
E|------------------|------------------|------------------|------------------|
B|-5h7--5-----------|------------------|------------------|------------------|
G|----------7--6----|--6h7p6-----------|--6--6--------6---|--6---6------6----|
D|------------------|----------7--5-4--|--------6--7------|--------6--7------|
A|------------------|------------------|------------------|------------------|
D|------------------|------------------|------------------|------------------|
   x2

      Riff D
E|------------------|------------------|------------------|------------------|
B|------------------|------------------|------------------|------------------|
G|------------------|------------------|------------------|------------------|
D|--4---------------|---4/5------------|---7--------------|---5/7------------|
A|--4---------------|---4/5------------|---7--------------|---5/7------------|
D|--4---------------|---4/5------------|---7--------------|---5/7------------|
   x4, then just hit the first chord, then go into the intro of the next song


************************
*** Movement IV - RR ***
************************

   Riff A
E|------------------|------------------|------------------|------------------|
B|------------------|------------------|------------------|------------------|
G|------------------|------------------|------------------|------------------|
D|------------------|-----------4--5---|--4---------------|------------------|
A|------------------|------------------|------------------|------------------|
D|--4---------------|------------------|------------------|------2---5---2---|
   (repeat until :34)

   Riff B
E|------------------|------------------|------------------|------------------|
B|------------------|------------------|------------------|------------------|
G|------------------|------------------|------------------|------------------|
D|-----------4------|-----------4------|------------4-----|------------4-----|
A|---4---5----------|---4---5----------|---4---5----------|----4---5---------|
D|------------------|------------------|------------------|------------------|
   x6

1:07 Riff C
E|------------------|------------------|------------------|------------------|
B|--------12--------|10---9-10--9h10p9-|------------------|------------------|
G|------------------|------------------|------------------|------------------|
D|--0---------------|------------------|--11-------9------|---7-----6--7--6--|
A|------------------|------------------|------------------|------------------|
D|------------------|------------------|------------------|------------------|
   after x1, play Riff B x4, then...


1:37 Riff D
E|------------------|------------------|------------------|------------------|
B|--------12--------|10---9-10--9h10p9-|------------------|------------------|
G|------------------|------------------|------------------|------------------|
D|--0---------------|------------------|-11-----12--------|--14----12--11--12|
A|------------------|------------------|------------------|------------------|
D|------------------|------------------|------------------|------------------|


E|------------------|------------------|------------------|------------------|
B|------------12-10-|-12-------14--12--|--14---14h15------|-15h17----15-14-15|
G|------------------|------------------|------------------|------------------|
D|--0---------------|------------------|------------------|------------------|
A|------------------|------------------|------------------|------------------|
D|------------------|------------------|------------------|------------------|

E|------------------|------------------|------------------|------------------|
B|------------10--9-|--9--------7h9p7--|------------------|------------------|
G|------------------|------------------|--6-------4-------|------------------|
D|--0---------------|------------------|------------------|--7-----6-7-6h7p6-|
A|------------------|------------------|------------------|------------------|
D|------------------|------------------|------------------|------------------|

E|----------9---9---|--9---------------|------------------|------------------|
B|------------------|------12---10--9--|------------------|------------------|
G|------------------|------------------|---6------7--9--7-|--6-------7--9--7-|
D|--0---------------|------------------|------------------|------------------|
A|------------------|------------------|------------------|------------------|
D|------------------|------------------|------------------|------------------|

E|------------------|------------------|------------------|------------------|
B|------------------|------------------|------------------|------------------|
G|------------------|------------------|------------------|------------------|
D|--0---------------|------------------|------------------|------------------|
A|------------------|------------------|------------------|------------------|
D|------------------|------------------|------------------|------------------|

E|------------------|------------------|------------------|------------------|
B|------------------|------------------|------------------|------------------|
G|------------------|------------------|------------------|------------------|
D|------------------|------------------|------------------|------------------|
A|------------------|------------------|------------------|------------------|
D|--0---------------|------------------|--/4--------------|------------------|

E|------------------|------------------|------------------|------------------|
B|------------10-9--|--9---------------|--5/7-7-----------|-12--10--9--10--9-|
G|--7---------------|------------------|------------------|------------------|
D|------------------|------------------|------------------|------------------|
A|------------------|------------------|------------------|------------------|
D|------------------|------------------|------------------|------------------|

E|------------------|---9--------------|------------------|------------------|
B|-10---------------|-----12-10-12-(10)|-9-10-12-10-9-10--|-9p7----9p7-------|
G|------------------|------------------|------------------|------------------|
D|------------------|------------------|------------------|------------------|
A|------------------|------------------|------------------|------------------|
D|------------------|------------------|------------------|------------------|

E|------------------|------------------|------------------|------------------|
B|------------------|------------------|------------------|------------------|
G|-7----------------|---6--------------|------------------|------------------|
D|------------------|----------9-------|--6--7--9--7--6--7|------------------|
A|------------------|------------------|------------------|------------------|
D|------------------|------------------|------------------|------------------|

E|------------------|------------------|------------------|------------------|
B|------------------|------------------|----7----7--9--7--|-9--10---9---10---|
G|-----------7------|----------9--7----|-9-----9----------|------------------|
D|---9--------------|------------------|------------------|------------------|
A|------------------|------------------|------------------|------------------|
D|------------------|------------------|------------------|------------------|

****************
*** Yatahaze ***
****************

E|--1---------------|------------------|--1---------------|------------------|
B|--3---------------|------------------|--3---------------|------------------|
G|--2---------------|------------------|--2---------------|------------------|
D|--0---------------|------------------|--0---------------|------------------|
A|------------------|-------------0----|------------------|------------0-----|
D|------------------|------------------|------------------|------------------|

E|--1---------------|------------------|--1---------------|------------------|
B|--3---------------|------------------|--3---------------|------------------|
G|--2---------------|------------------|--2---------------|------------------|
D|--0---------------|------------------|--0---------------|------------------|
A|------------------|-------------0----|------------------|------------0-----|
D|------------------|------------------|------------------|------------------|

E|------------------|------------------|------------------|------------------|
B|--6--6----5--5----|----------5--5----|---6--6---5--5----|----------5--5----|
G|------------------|---7--7-----------|------------------|--7--7------------|
D|------------------|------------------|------------------|------------------|
A|------------------|------------------|------------------|------------------|
D|------------------|------------------|------------------|------------------|

E|------------------|------------------|------------------|------------------|
B|--6--6----5--5----|----------5--5----|---6--------------|--6/8-------------|
G|------------------|---7--7-----------|------------------|------------------|
D|------------------|------------------|------------------|------------------|
A|------------------|------------------|------------------|------------------|
D|------------------|------------------|------------------|------------------|


E|------------------|------------------|------------------|------------------|
B|-10---------------|------------------|------------------|------------------|
G|------------------|------------------|------------------|------------------|
D|------------------|------------------|----8-------------|------------------|
A|------------------|------------------|----8-------------|------------------|
D|------------------|------------------|----8-------------|------------------|


E|------------------|------------------|------------------|------------------|
B|--6------5--------|----------5-------|------------------|------------------|
G|------------------|----7-------------|------------------|------------------|
D|--0---------------|------------------|----8-------------|-(10-10-8-8)------|
A|--0---------------|------------------|----8-------------|------------------|
D|--0---------------|------------------|----8-------------|------------------|
repeat this line over and over, with slight variations...

1:20  Riff B
E|--5---------------|--------5---------|---5--------------|------------------|
B|--6---------------|-----6----6-------|---6--------------|------------------|
G|--7---------------|---7--------7-----|---7--------------|------------------|
D|------------------|------------------|------------------|------------------|
A|------------------|------------------|------------------|------------------|
D|------------------|------------------|------------------|------------------|
x4

1:46  Riff C
E|------------------|------------------|------------------|------------------|
B|------------------|------------------|------------------|------------------|
G|------------------|-10/12--12--10----|------------------|-10---10\9--------|
D|---8--------------|--x--x---x---x----|--0---------------|--x----x-x--------|
A|---8--------------|--8/10--10---8----|--0---------------|--8----8\7--------|
D|---8--------------|------------------|--0---------------|------------------|

E|------------------|------------------|------------------|------------------|
B|------------------|------------------|------------------|------------------|
G|------------------|-10/12--12--10----|------------------|-10---10\9--------|
D|---8--------------|--x--x---x---x----|--0---------------|--x----x-x--------|
A|---8--------------|--8/10--10---8----|--0---------------|--8----8\7--------|
D|---8--------------|------------------|--0---------------|------------------|

E|------------------|------------------|------------------|------------------|
B|------------------|------------------|------------------|------------------|
G|------------------|-10/12--12--14----|------------------|-10---10\9--------|
D|---8--------------|--x--x---x---x----|--0---------------|--x----x-x--------|
A|---8--------------|--8/10--10--12----|--0---------------|--8----8\7--------|
D|---8--------------|------------------|--0---------------|------------------|

E|------------------|------------------|------------------|------------------|
B|------------------|------------------|------------------|------------------|
G|------------------|-10/12--12--14----|------------------|-10---10\9--------|
D|---8--------------|--x--x---x---x----|--0---------------|--x----x-x--------|
A|---8--------------|--8/10--10--12----|--0---------------|--8----8\7--------|
D|---8--------------|------------------|--0---------------|------------------|

E|------------------|------------------|
B|------------------|------------------|
G|------------------|-10/12--12--14----|
D|---8--------------|--x--x---x---x----|
A|---8--------------|--8/10--10--12----|
D|---8--------------|------------------|

2:14  Riff D
E|------------------|------------------|------------------|------------------|
B|------------------|------------------|------------------|------------------|
G|------------------|------------------|------------------|------------------|
D|--7-7-7---x-x-x---|---7-7-7---x-x-x--|---8-8-8--x-x-x---|---8-8-8---x-x-x--|
A|--7-7-7---x-x-x---|---7-7-7---x-x-x--|---8-8-8--x-x-x---|---8-8-8---x-x-x--|
D|--7-7-7---x-x-x---|---7-7-7---x-x-x--|---8-8-8--x-x-x---|---8-8-8---x-x-x--|
x4, skip last set of x's the 2nd and 4th time

2:38  Riff E
E|------------------|------------------|------------------|------------------|
B|------------------|------------------|------------------|------------------|
G|-------9--9--9----|------9--9--9-----|------9--9--9-----|-----9--9--9------|
D|--0---------------|--0---------------|--8---------------|--8---------------|
A|--0---------------|--0---------------|--8---------------|--8---------------|
D|--0---------------|--0---------------|--8---------------|--8---------------|
x4

3:02  Riff F
E|------------------|------------------|------------------|------------------|
B|------------------|------------------|------------------|------------------|
G|------------------|------------------|------------------|------------------|
D|--7~--------------|------------------|------------------|------------------|
A|--7~--------------|------------------|------------------|------------------|
D|--7~--------------|------------------|------------------|------------------|
(just hit it over and over for four measures)

3:08  Riff G
E|------------------|------------------|------------------|------------------|
B|------------------|------------------|------------------|------------------|
G|------2--2--------|--------2---2-----|------------------|------------------|
D|--0---------------|--0---------------|---------2--------|--3-2-----0-2-----|
A|------------------|------------------|--1---------------|------------------|
D|------------------|------------------|------------------|------------------|

E|------------------|------------------|------------------|------------------|
B|------------------|------------------|------------------|------------------|
G|------2-----------|---3--2---0-2-----|------------------|------------------|
D|--0---------------|------------------|---------2--------|---3------3-5-----|
A|------------------|------------------|--1---------------|------------------|
D|------------------|------------------|------------------|------------------|

E|------------------|------------------|------------------|------------------|
B|------------------|------------------|------------------|------------------|
G|------2-----------|----2-3----3-5----|------------------|------------------|
D|-0----------------|------------------|---------2--------|---3-2-----0-2----|
A|------------------|------------------|--1---------------|------------------|
D|------------------|------------------|------------------|------------------|

E|------------------|------------------|------------------|------------------|
B|------------------|------------------|------------------|------------------|
G|------2-----------|--3-2---0-2--0----|------------------|------------------|
D|--0---------------|---------------3--|---------2--------|---3-2--0-2--0----|
A|------------------|------------------|--1---------------|----------------3-|
D|------------------|------------------|------------------|------------------|

E|------------------|------------------|------------------|------------------|
B|------------------|------------------|------------------|------------------|
G|------6~----------|---6~-------------|--7~--------------|--7~--------------|
D|------7~----------|---7~-------------|--7~--------------|--7~--------------|
A|-0----------------|------------------|------------------|------------------|
D|------------------|------------------|------------------|------------------|

E|------------------|------------------|------------------|------------------|
B|------------------|------------------|---9~-------------|------------------|
G|----6~------------|---6~-------------|---7~-------------|------------------|
D|----7~------------|---7~-------------|---6~-------------|------------------|
A|------------------|------------------|------------------|------------------|
D|------------------|------------------|------------------|------------------|

**********************************
*** Movement V - 90 Hour Sleep ***
**********************************

0:00  Riff A: play this throughout:
E|------------------|------------------|------------------|------------------|
B|------------------|------------------|------------------|------------------|
G|-----9-------9----|------9--------9--|-----9-------9----|-----9---9---9----|
D|-----7-------7----|------7--------7--|-----7-------7----|-----6---7---7----|
A|-0-0---0-0-0---0--|-1010---101010--10|-8-8---8-8-8---8--|-7-7---7---7---7--|
D|------------------|------------------|------------------|------------------|
or maybe...
E|------------------|------------------|------------------|------------------|
B|-----5-------5----|------5-------5---|-----5-------5----|-----5---5---5----|
G|-----5-------5----|------5-------5---|-----5-------5----|-----4---5---4----|
D|------------------|--5-5---5-5-5---5-|-3-3---3-3-3---3--|-2-2---2---2---2--|
A|-0-0---0-0-0---0--|------------------|------------------|------------------|
D|------------------|------------------|------------------|------------------|

:17  Riff B  (use a slide)
E|--5---------------|---7--------------|---8--------------|---7--------------|
B|------------------|------------------|------------------|------------------|
G|------------------|------------------|------------------|------------------|
D|------------------|------------------|------------------|------------------|
A|------------------|------------------|------------------|------------------|
D|------------------|------------------|------------------|------------------|
                                           
                                                            a little further
                                                            up than 9th fret
E|--5---------------|---7--------------|---12-------------|--9+--------------|
B|------------------|------------------|------------------|------------------|
G|------------------|------------------|------------------|------------------|
D|------------------|------------------|------------------|------------------|
A|------------------|------------------|------------------|------------------|
D|------------------|------------------|------------------|------------------|


E|-17---------------|---15-------------|---13-------------|--12----\---10----|
B|------------------|------------------|------------------|------------------|
G|------------------|------------------|------------------|------------------|
D|------------------|------------------|------------------|------------------|
A|------------------|------------------|------------------|------------------|
D|------------------|------------------|------------------|------------------|

E|-17---------------|---19-------------|--13---/---15-----|---12---\---10----|
B|------------------|------------------|------------------|------------------|
G|------------------|------------------|------------------|------------------|
D|------------------|------------------|------------------|------------------|
A|------------------|------------------|------------------|------------------|
D|------------------|------------------|------------------|------------------|

1:09  Riff C
E|------------------|------------------|------------------|------------------|
B|------------------|------------------|------------------|------------------|
G|------------------|------------------|------------------|------------------|
D|------------------|------------------|------------------|------------0-----|
A|--0---------------|------0----2------|--3---------------|------3-----------|
D|------------------|------------------|------------------|------------------|

E|------------------|------------------|------------------|------------------|
B|------------------|------------------|------------------|------------------|
G|------------------|-----------2------|--1---------------|------------------|
D|--2---------------|----2-------------|------------------|------------------|
A|------------------|------------------|------------------|------------------|
D|------------------|------------------|------------------|------------------|
x2

1:34  Riff D
E|--0---------------|---0---3---3---0--|--0---------------|--0---1---1---0---|
B|------------------|------------------|------------------|------------------|
G|------------------|------------------|------------------|------------------|
D|------------------|------------------|------------------|------------------|
A|------------------|------------------|------------------|------------------|
D|------------------|------------------|------------------|------------------|

E|-0----------------|-----8-8----7-7---|--5---5-----------|--5----7----8-----|
B|------------------|------------------|------------------|------------------|
G|------------------|------------------|------------------|------------------|
D|------------------|------------------|------------------|------------------|
A|------------------|------------------|------------------|------------------|
D|------------------|------------------|------------------|------------------|
x2


The end.
Related for Leitmotif tab