Song name
# A B C D E F G H I J K L M N O P Q R S T U V W X Y Z

Dredg - Wind At The End tab

PART 1
E--3------------1-------------6---------
B--3------------3-------------6---------
G--3------------2-------------0---------
D--5------------3-------------x---------
A--5------------x-------------5---------
E--3------------1-------------6---------

3 Chords...play as needed as you pick up the rythym.

PART 2
E--5------------5-------------6---------
B--6------------5-------------6---------
G--7------------5-------------0---------
D--7------------5-------------x---------
A--5------------3-------------5---------
E-----------------------------6---------

Follow PART 1 immediately.

PART 3
E--1------------0-------------------
B--1------------3-------------------
G--2------------2-------------------
D--3------------0-------------------
A--3------------x-------------------
E--1------------2-------------------

Follow PART 2 immediately.

ORDER OF SONG:
PART 1
PART 2
PART 3
PART 1
PART 2(end)

Tabbed by Branzy
Tap to rate this tab
# A B C D E F G H I J K L M N O P Q R S T U V W X Y Z