Song name
# A B C D E F G H I J K L M N O P Q R S T U V W X Y Z

Dredg - Matroshka Acoustic tab

Help us improve GuitareTab! Take a short survey!
Dredg - Matroshka (transcribed for solo acoustic guitar)

This song translates beautifully for a solo singer/guitarist.  The album version is so
heavily laired that it's difficult for me to transcribe each individual part.  As a
result I am tabbing this solo acoustic version of the song for anyone that wishes to be
able to use it for performance.  Perhaps I'll do the full tab later on, either way this
will also give you an outline as far as bass notes and everything.  Also please note the
solo has that pedaled E note which isn't really in the recorded version, I just put it
there because if your doing it on acoustic you'll want a little more body to the sound
so it doesnt sound so weak.

Listen for strumming pattern and switches.  Big emphasis on the 'and' of 2

Intro/Verse 1 (when singing it sounds fine to just use the regular chord progression too

(see Verse 2)

E-2-2-2-2--5-5-5-5--2-2-2-2--3-3-3-3-|
B------------------------------------|
G------------------------------------|
D------------------------------------|
A------------------------------------|
E------------------------------------|

E-2-2-2-2--5-5-3-3--2-2-2-2----------|
B----------------------------3-3-3-3-|
D------------------------------------|
A------------------------------------|
E------------------------------------|

Bridge Part ("Look another year went by"):

E-----3------------------3---------------|
B-3---3---3---3------3---3---3-----3--3--|
G-2---0---2---2------2---0---2-----2--2--|
D-x---0---0---2------x---0---0-----2--2--|
A-2---2-------0------2---2---x-----0--0--|
E-----3------------------3---2-----------|

Verse 2:

E------3-------3-------3----------|
B--3---3---3---3---3---3---3---3--|
G--2---0---2---0---2---0---2---2--|
D--0---0---x---0---0---0---x---2--|
A------2---2---2-------2---2---0--|
E------3-------3-------3----------|

Chorus/Outro (To criticize and Judge):

E--------------3---|
B--3---3---3---3---|
G--2---2---2---0---|
D--0---2---0---0---|
A------0---x---2---|
E----------2---3---|

Solo:

E-0-0-0-0-0-0-0-0-----|
B-3-3-3-3-3-3-5-5-----|
G---------------------| x2
D---------------------|
A---------------------|
E---------------------|

E-0-0-0-0-0-0-0-0--0-0-0-0-0-0-0-0---|
B-7-7-7-7-7-7-7-7--7-7-7-7-7-0-0-0---|
G------------------6-6-6-6-6-4-4-4---|
D------------------------------------|
A------------------------------------|
E------------------------------------|

E-0-0-0-0-0-0-0-0-----|
B-3-3-3-3-3-3-5-5-----|
G---------------------| x2
D---------------------|
A---------------------|
E---------------------|

E-0-0-0-0-0-0-0-0--0--0--0--0--0--0--0--0--9--9--9--9--9--9--9--9---|
B-8-8-8-8-7-5-5-5--10-10-10-10-10-10-10-10-10-10-10-10-10-10-10-10--|
G-------------------------------------------------------------------|
D-------------------------------------------------------------------|
A-------------------------------------------------------------------|
E-------------------------------------------------------------------|

Dredg is the most inspiring group of artists I have ever experienced.

-Adam
andel@conncoll.edu
Related for Matroshka Acoustic tab