Song name
# A B C D E F G H I J K L M N O P Q R S T U V W X Y Z

Dredg - Zebra Skin tab

Here is my stab at this cool Song:

Artist: DREDG
Song:  ZEBRA SKIN

Intro/Main Riff:

Listen to Song for Timing

Play with Chorus and/or Tremolo:

E--------5------------5----5/7----2/3/2/0---------------------------------------------|
B-----3------------3-----------------------2/3/2/0------------------------------------|
G--2------------2---------------------------------------------------------------------|
D-------------------------------------------------------------------------------------|
A-------------------------------------------------------------------------------------|
E-------------------------------------------------------------------------------------|

E----------------------------------------------------------------------------------|
B----3--3/5------------------------------------------------------------------------|
G------------2--2/4----------------------------------------------------------------|
D----------------------------------------------------------------------------------|
A----------------------------------------------------------------------------------|
E----------------------------------------------------------------------------------|

Chorus:

     I wonder....While I'm running around a again

E----------------------------------------------------------------------------------|
B----------------------------------------------------------------------------------|
G----2------------7--------------------------------------------2-------------------|
D----2------------7-------------------------------7------------2-------------------|
A----4------------5-------------------------------7------------4-------------------|
E-------------------------------------------------5--------------------------------|

Harmonic Fill:

    N.H  N.H  N.H
E-------------------------------------------------------------------------------|
B------------7------------------------------------------------------------------|
G--------7----------------------------------------------------------------------|
D----7--------------------------------------------------------------------------|
A-------------------------------------------------------------------------------|
E-------------------------------------------------------------------------------|

Enjoy,

AggieRob02@gmail.com

"Real Eyes, Realize, Real Lies"

Hi
Tap to rate this tab
# A B C D E F G H I J K L M N O P Q R S T U V W X Y Z