Song name
# A B C D E F G H I J K L M N O P Q R S T U V W X Y Z

Dredg - Movement I 45 N 180 W tab

-----------------------------------------------------------------------------
Movement I - 45ºN, 180ºW (Symbol Song) - Dredg
-----------------------------------------------------------------------------
Tabbed by: Soulless89
Email: darkfire_89@hotmail.com

Tuning: contrary to many Dredg tabs out there, the song is actually played in standard,
drop d

Note. There are two guitars recorded on this track. The 2nd one is pretty deep in the
though, and so it’s a lot harder to make out. I’ll just mark off the main points that the
will be playing, but in all honesty, you don’t need more then one to play this song.

At about 30sec.

(clean, or minor distortion)
e|-10-10-12-10-10---10-----------10-10-------------------------|
B|-10-10---------------10h11p10--10-10—10--10-10---------------|
G|-10-10-------------------------10-10-----------9h10h12-10p9-9|
D|-------------------------------------------------------------|
A|-------------------------------------------------------------|
E|-------------------------------------------------------------|

“Guitar 2”
e|-10-10-------------------------10-10----------------------|
B|-10-10-------------------------10-10----------------------|
G|-10-10-------------------------10-10----------------------|
D|----------------------------------------------------------|
A|----------------------------------------------------------|
E|----------------------------------------------------------|

play those riffs 22 times (just the top one if only playing one guitar)

(distortion)
e|----------------------------|
B|----------------------------|
G|-10-10---10-9-12-10-9-10-10-|
D|----------------------------|
A|----------------------------|
E|----------------------------|

(play 4 times)

e|-10-10----------------------|
B|-10-10----------------------|
G|-10-10---10-9-12-10-9-10-10-|
D|----------------------------|
A|----------------------------|
E|----------------------------|
(repeat)

e|--------------------------------|
B|--------------------------------|
G|------10-10109-9----10-10109-9--|
D|-1010------------99-------------|
A|-1010------------99-------------|
E|-8-8-------------77-------------|

e|-10-10----------------------|
B|-10-10----------------------|
G|-10-10---10-9-12-10-9-10-10-|
D|----------------------------|
A|----------------------------|
E|----------------------------|
(repeat)

e|---------------------------------------------------------|
B|---------------------------------------------------------|
G|------10-10109-9----10-10109-9----12b--------------------|
D|-1010------------99------------88----------7-7777-7-7777-|
A|-1010------------99------------88----------7-7777-7-7777-|
E|-8-8-------------77------------66----------5-5555-5-5555-|
(x2)

e|---------------------------------------------------------------|
B|---------------------------------------------------------------|
G|------10-10109-9----10-10109-9----12-121210-10-----------------|
D|-1010------------99------------88----------------7-7777-7-7777-|
A|-1010------------99------------88----------------7-7777-7-7777-|
E|-8-8-------------77------------66----------------5-5555-5-5555-|

e|-------------------|
B|-------------------|
G|-------------------|
D|-7-7777-7-7777---77|
A|-7-7777-7-7777---77|
E|-5-5555-5-5555---55|

e|----------------------------|
B|----------------------------|
G|-10-10---10-9-12-10-9-10-10-|
D|----------------------------|
A|----------------------------|
E|----------------------------|
(x3)

e|-10-10----------------------|
B|-10-10----------------------|
G|-10-10---10-9-12-10-9-10-10-|
D|----------------------------|
A|----------------------------|
E|----------------------------|
(repeat)

e|---------------------------------------------------------|
B|---------------------------------------------------------|
G|------10-10109-9----10-10109-9----12b--------------------|
D|-1010------------99------------88----------7-7777-7-7777-|
A|-1010------------99------------88----------7-7777-7-7777-|
E|-8-8-------------77------------66----------5-5555-5-5555-|
(x2)

e|---------------------------------------------------------------|
B|---------------------------------------------------------------|
G|------10-10109-9----10-10109-9----12-121210-10-----------------|
D|-1010------------99------------88----------------7-7777-7-7777-|
A|-1010------------99------------88----------------7-7777-7-7777-|
E|-8-8-------------77------------66----------------5-5555-5-5555-|

e|--------------------------------|
B|--------------------------------|
G|--------------------------------|
D|-7-7777-7-7777--7-7777-7-7777-77|
A|-7-7777-7-7777--7-7777-7-7777-77|
E|-5-5555-5-5555--5-5555-5-5555-55|

And that’s basically it. And question, email or message me.
Tap to rate this tab
 
# A B C D E F G H I J K L M N O P Q R S T U V W X Y Z