Song name
# A B C D E F G H I J K L M N O P Q R S T U V W X Y Z

Dredg - It Only Took A Day tab

 made this from listening to the song....

tuning: DADGBE

Intro:

0:00- 0:12
e-5/--
B-----
G-----
D-----
A-----
D-----

0:12-0:35
e-0-------------------------------------------------------------|
B--0------------------------------------------------------------|
G---0-----------------------------------------------------------|
D-----9-------12-11-9-12-11-9-----------------------------------|
A-----9-10-9----------------9--9-9-9-9-9-9-10-10-10-10-10-10-10-|
D-----9---------------------9--9-9-9-9-9-9----------------------|
repeat according to time limit
listen for rythm and timing

0:35
e----------------------------|
B----------------------------|
G-11-11-11-9-9-9-12-12-12-12-|
D-9--9--9--9-9-9-------------|
A-9--9--9--9-9-9-------------|
D-9--9--9--9-9-9-------------|


0:38-1:10
e---------------------------------------------------------------------|
B---------------------------------------------------------------------|
G-11-11-11-9-9-9-12-12-12-12---11-11-11-9-9-9-12-12-------------------|
D-9--9--9--9-9-9-9--9--9--9----9--9--9--9-9-9-9--9--12-12-12-12-11-9--|
A-9--9--9--9-9-9-9--9--9--9----9--9--9--9-9-9-9--9--9--9--9--9--9--9--|
D-9--9--9--9-9-9-9--9--9--9----9--9--9--9-9-9-9--9--9--9--9--9--9--9--|
some notes are changed during repeats
this is also the chorus


1:10
e------------8-8-8-8-8-8-8-8-|
B----------------------------|
G----------------------------|
D-3--3--3--3-----------------|
A-3--3--3--3-----------------|
D-3--3--3--3-----------------|


thats what i have so far.
tabbed by ear..

email obiwancanole@yahoo.com for any questions comments/fixes.
Tap to rate this tab
# A B C D E F G H I J K L M N O P Q R S T U V W X Y Z