Song name
# A B C D E F G H I J K L M N O P Q R S T U V W X Y Z

Drenge - Fuckabout tab

-----------------------------------------------------------------------------
                          Fuckabout - Drenge
-----------------------------------------------------------------------------

E-mail: kidneyfeet@gmail.com

Tuning: Stsndard

Note: Playing a regular G# chord sounds just as good as playing a G#7

E           A          G#7
   This song      is a fuckabout

E         A                G#7
   Not one        to write home about

E           A                  G#7
   And I guess    If you're in any doubt

              F#m
   That I'm a fuckabout

                  Am
   Well then I'll hear you out


E           A           G#7
   And I live      in a paradise

E              A         G#7           
   It's not home   but I guess it's alright

E              A          G#7
   And you live    on the second floor

                F#m
   Sleep in the corridor

                Am
   What are you living for?


        E         B             G#7
   When words get stuck in your throat

               A           E
   And all you wanna do is choke

          A                     B
   On the lies that you've been fed

        E       B           G#7
   When you are down in the dumps

              A              E
   And you're kicking at the walls

             A                   B
  'Cause you don't know what you said


E          A              G#7
   When I         put the kettle on

E          A            G#7
   You put        heavy metal on

E               A        G#7
   I won't say a word  until I go

       F#m           Am
   And then you say   well what do I want anyway?


E              A          G#7
   And I'll waste   every single day

E           A                G#7
   Staring          into the middle  space

E             A                G#7
   And you know     that I'm a fuckabout

               F#m
   What can we talk about?

         Am
   Anyhow


        E         B             G#7
   When words get stuck in your throat

               A           E
   And all you wanna do is choke

          A                     B
   On the lies that you've been fed

        E       B           G#7
   When you are down in the dumps

              A              E
   And you're kicking at the walls

             A                   B         C     D   D#
  'Cause you don't know what you said

e|-----------------------------------------------------------------|
B|-----------------------------------------------------------------|
G|-----------------4---------------6-------------------------------|
D|-2------6b7br6---4------6b7br6---6------6b7br6---9-7-6---7-6-----|
A|-2---------------2-------------2-4---------------------9-----9-7-|
E|-0-------------0-------------------------------0-----------------|

e|-----------------------------------------------------------------|
B|-2---------4-------------9\------2---------4---------------------|
G|-2---------4-------------9\------2---------4-----5-------2-------|
D|-2---------4-----2-------9\------2---------4-----6-------4-------|
A|-0---0-0-0-2-----2---------------0---0-0-0-2-----6-------4-------|
E|-----------------0-------------------------------4-------2-------|

e|--------------------------------------------------------------------|
B|--------------------------------------------------------------------|
G|-----------------4---------------6----------------------------------|
D|-2------6b7br6---4------6b7br6---6------6b7br6---9b11br9-7-6b7br6---|
A|-2---------------2-------------2-4--------------------------------7-|
E|-0-------------0-------------------------------0--------------------|

e|-----------------------------------------------------------------|
B|-2---------4-------------9\------2---------4---------------------|
G|-2---------4-------------9\------2---------4-----5-------2-------|
D|-2---------4-----2-------9\------2---------4-----6-------4-------|
A|-0---0-0-0-2-----2---------------0---0-0-0-2-----6-------4-------|
E|-----------------0-------------------------------4-------2-------|

     E            B
   I don't give a fuck

         A         Am
   About people in love

        E          B
   They don't piss me off

             A            Am
   They just make me give up

************************************

| /   slide up
| \   slide down
| h   hammer-on
| p   pull-off
| ~   vibrato
| +   harmonic
| x   Mute note
| b   Bend
| pb  Pre-bend
| br  Bend release
| pbr Pre-bend release
| brb Bend release bend

************************************
Tap to rate this tab
# A B C D E F G H I J K L M N O P Q R S T U V W X Y Z