Song name
# A B C D E F G H I J K L M N O P Q R S T U V W X Y Z

Drenge - Backwaters tab

------------------------------------------------------------------------
                          DRENGE - BACKWATERS
------------------------------------------------------------------------
Tuning: Drop D
Tabbed by: Jack Miszewski

My first ever tab so go easy ;) 

 INTRO & VERSE
(UP AND DOWN STROKES QUICKLY)

e|-------------------------------------------------------------------------|
B|-------------------------------------------------------------------------|
G|-------------------------------------------------------------------------|
D|-----------------------------------333333335555555-----------------------| X2
A|--5555555555555---5555555555555----333333335555555-5-555555----555555----|
D|--000000000000003000000000000000303333333355555553-0-0000003-0-0000003-0-|

e|-------------------------------------------------------------------------|
B|-------------------------------------------------------------------------|
G|-------------------------------------------------------------------------|
D|----------------------------------3333333322222222-----------------------| X1
A|--5555555555555---5555555555555---3333333322222222-5-555555----555555----|
D|--000000000000003000000000000000303333333322222222-0-0000003-0-0000003-0-|

e|---------------------------|
B|---------------------------|
G|---------------------------|
D|-333333335555555555555555--| X1
A|-333333335555555555555555--|
D|-333333335555555555555555--|

Chorus

E|-------------------------------------|
B|-------------------------------------|
G|-7-7-x-x-x-7-7-x-x-x-5-x---x---x-----|
D|-7-7-x-x-x-5-5-x-x-x-5-x-3-x-5-x-3---|
A|-5-5-x-x-x-5-5-x-x-x-3-x-3-x-5-x-3---|  x3
D|-0-0-x-x-x-0-0-x-x-x-0-x-3-x-5-x-3---|

E|--------------------------------------------------------|
B|--------------------------------------------------------|
G|-7-7-x-x-x-7-7-x-x-x-5----------------------------------|
D|-7-7-x-x-x-5-5-x-x-x-5-x-3-x-5-x-3-x-5-x-3-x-5----------|
A|-5-5-x-x-x-5-5-x-x-x-3-x-3-x-5-x-3-x-5-x-3-x-5----------|  
D|-0-0-x-x-x-0-0-x-x-x-0-x-3-x-5-x-3-x-5-x-3-x-5-0h3h5p0--|

STRAIGHT BACK INTO VERSE

I know there is some small bits missing but here's the main parts :D ! 

Tabbed by Jack Miszewski.
Tap to rate this tab
 
# A B C D E F G H I J K L M N O P Q R S T U V W X Y Z