Song name
# A B C D E F G H I J K L M N O P Q R S T U V W X Y Z

Drengene Fra Angora - Jul I Angora tab

I donīt no if itīs 100% correct!

Chords to it are:
|E|Bb|D#m|Gm|
|E|Bb-F|Bb|Bb|

E|--------------|----------|--------------|----------|--------------|
B|--------------|----------|--------------|----------|--------------|
G|--------------|----------|--------------|----------|--------------|
D|--------13----|------8---|--------12----|----------|--------13----|
A|-----13----13-|----8---8-|-----12----12-|------5---|-----13----13-|
E|--11----------|--6-------|--10----------|--3-3---3-|--12----------|

E|-------------|
B|-------------|
G|-------------|
D|-------------|
A|----8-3------|
E|--6-----1-6~-|

This tab is made by Gomz
Tap to rate this tab
 
# A B C D E F G H I J K L M N O P Q R S T U V W X Y Z