Song name
# A B C D E F G H I J K L M N O P Q R S T U V W X Y Z

Drengene Fra Angora - Oresundsvisan tab

FORSPIL:
  D                 A7                D                 A7
|-----2-------2---|-----------------|-----2-------2---|---------0-------|
|-----3-------3---|-----2-------2---|-----3-------3---|-------2---------|
|---2-------2---2-|-----0-------0---|---2-------2---2-|-----0-----------|
|-0-----2-0-------|---2---2---2---2-|-0-----2-0-------|---2-------------|
|-----------------|-0-------0-------|-----------------|-0---------------|
|-----------------|-----------------|-----------------|-----------------|


FRSTE VERS:
  D       Gm        D                 D       Gm        A7      D
|-----------------|-----------------|-----------------|-------------2---|
|-----7-----------|-----7-------7---|-----7-----------|-----2-------3---|
|-----7-------3---|-----7-------7---|-----7-------3---|-----0-----2---2-|
|---7---7-----5---|---7---7---7---7-|---7---7-----5---|---2---2-0-------|
|-5---------5---5-|-5-------5-------|-5---------5---5-|-0---------------|
|---------3-------|-----------------|---------3-------|-----------------|
 I en liten bot                      Sittar vi och kyssar

  D       Gm        D                 D       Gm        A7      D
|-----------------|-----------------|-----------------|-------------2---|
|-----7-----------|-----7-------7---|-----7-----------|-----2-------3---|
|-----7-------3---|-----7-------7---|-----7-------3---|-----0-----2---2-|
|---7---7-----5---|---7---7---7---7-|---7---7-----5---|---2---2-0-------|
|-5---------5---5-|-5-------5-------|-5---------5---5-|-0---------------|
|---------3-------|-----------------|---------3-------|-----------------|
 Midt p resund                     Sidder to forelsked' bsser

  G                 Gm                D                 A7
|-----------------|-----------------|-----------------|-----------------|
|-----------------|-----------------|-----7-------7---|-----2---2-------|
|-----4-------4---|-----3-------3---|-----7-------7---|-----0---0-------|
|-----5-------5---|-----5-------5---|---7---7---7---7-|---2---2---------|
|---5---5---5---5-|---5---5---5---5-|-5-------5-------|-0---------------|
|-3-------3-------|-3-------3-------|-----------------|-----------------|
 En elskovsstund...Kys mig med din...Javist, min danska...


OMKVD:
  D                 A                 G                 Gm
|-----------------|-----------------|-----------------|-----------------|
|-----7-------7---|-----------------|-----------------|-----------------|
|-----7-------7---|-----6-------6---|-----4-------4---|-----3-------3---|
|---7---7---7---7-|-----7-------7---|-----5-------5---|-----5-------5---|
|-5-------5-------|---7---7---7---7-|---5---5---5---5-|---5---5---5---5-|
|-----------------|-5-------5-------|-3-------3-------|-3-------3-------|
 Fr vi knullar... Det' vor...       Vi kler lidt...  Och smager lidt...

  D                 A
|-----------------|-----------------|
|-----7-------7---|-----2-------2---|
|-----7-------7---|-----2-------2---|
|---7---7---7---7-|---2---2---2---2-|
|-5-------5-------|-0-------0-------|
|-----------------|-----------------|
 Verandre          Smak p korven min


ANDEN VERS:
  D       Gm        D                 D       Gm        A7      D
|-----------------|-----------------|-----------------|-------------2---|
|-----7-----------|-----7-------7---|-----7-----------|-----2-------3---|
|-----7-------3---|-----7-------7---|-----7-------3---|-----0-----2---2-|
|---7---7-----5---|---7---7---7---7-|---7---7-----5---|---2---2-0-------|
|-5---------5---5-|-5-------5-------|-5---------5---5-|-0---------------|
|---------3-------|-----------------|---------3-------|-----------------|
 Hov, hvad er nu det                 Der' en bd der kommer nrmer'

  D       Gm        D                 D       Gm        A7      D
|-----------------|-----------------|-----------------|-------------2---|
|-----7-----------|-----7-------7---|-----7-----------|-----2-------3---|
|-----7-------3---|-----7-------7---|-----7-------3---|-----0-----2---2-|
|---7---7-----5---|---7---7---7---7-|---7---7-----5---|---2---2-0-------|
|-5---------5---5-|-5-------5-------|-5---------5---5-|-0---------------|
|---------3-------|-----------------|---------3-------|-----------------|
 Se det norske flag                  Der r en enlig mann i boten

  G                 Gm                D                 A7
|-----------------|-----------------|-----------------|-----------------|
|-----------------|-----------------|-----7-------7---|-----2-------2---|
|-----4-------4---|-----3-------3---|-----7-------7---|-----0-------0---|
|-----5-------5---|-----5-------5---|---7---7---7---7-|---2---2---2-----|
|---5---5---5---5-|---5---5---5---5-|-5-------5-------|-0-------0-------|
|-3-------3-------|-3-------3-------|-----------------|-----------------|
 Hej p dig, jeg...Fr jeg vare...   Ja ja, naturligvis


OMKVD:
  D                 A                 G                 Gm
|-----------------|-----------------|-----------------|-----------------|
|-----7-------7---|-----------------|-----------------|-----------------|
|-----7-------7---|-----6-------6---|-----4-------4---|-----3-------3---|
|---7---7---7---7-|-----7-------7---|-----5-------5---|-----5-------5---|
|-5-------5-------|---7---7---7---7-|---5---5---5---5-|---5---5---5---5-|
|-----------------|-5-------5-------|-3-------3-------|-3-------3-------|
 Fr vi knullar... Det er godt at... Bten vipper...   Och ni kan tro...

  D                 A                 D                 A
|-----------------|-----------------|-----------------|-----------------|
|-----7-------7---|-----2-------2---|-----7-------7---|-----------------|
|-----7-------7---|-----2-------2---|-----7-------7---|-----6-------6---|
|---7---7---7---7-|---2---2---2---2-|---7---7---7---7-|-----7-------7---|
|-5-------5-------|-0-------0-------|-5-------5-------|---7---7---7---7-|
|-----------------|-----------------|-----------------|-5-------5-------|
                   I kanalen         Ja, vi knullar... Fr jeg bappe...

  G                 Gm                D                 A
|-----------------|-----------------|-----------------|-----------------|
|-----------------|-----------------|-----7-------7---|-----------------|
|-----4-------4---|-----3-------3---|-----7-------7---|-----6-------6---|
|-----5-------5---|-----5-------5---|---7---7---7---7-|-----7-------7---|
|---5---5---5---5-|---5---5---5---5-|-5-------5-------|---7---7---7-----|
|-3-------3-------|-3-------3-------|-----------------|-5-------5-----3-|
 Ja, guf min...    Og hold om mig og sig krammebjrn   Vor krammebjrn


B-STYKKE:
  F#                Bm                F#                Bm               
|-----------------|-----------------|-----------------|-----------------|
|-----------------|-----3-------3---|-----------------|-----3-------3---|
|-----3-------3---|-----4-------4---|-----3-------3---|-----4-------4---|
|-----4-------4---|---4---4---4---4-|-----4-------4---|---4---4---4---4-|
|---4---4---4---4-|-2-------2-------|---4---4---4---4-|-2-------2-------|
|-2-------2-------|-----------------|-2-------2-------|-----------------|

  A                 D       D#m       G       G#        A       A7
|-----------------|-----------------|-----------------|---------------0-|
|-----------------|-----7-------7---|-----------------|-----2-------2---|
|-----6-------6---|-----7-------8---|-----4-------5---|-----2-----------|
|-----7-------7---|---7---7---8---8-|-----5-------6---|---2---2---2-----|
|---7---7---7---7-|-5-------6-------|---5---5---6---6-|-0-------0-------|
|-5-------5-------|-----------------|-3-------4-------|-----------------|


OMKVD:
  D                 A                 G                 Gm
|-----------------|-----------------|-----------------|-----------------|
|-----7-------7---|-----------------|-----------------|-----------------|
|-----7-------7---|-----6-------6---|-----4-------4---|-----3-------3---|
|---7---7---7---7-|-----7-------7---|-----5-------5---|-----5-------5---|
|-5-------5-------|---7---7---7---7-|---5---5---5---5-|---5---5---5---5-|
|-----------------|-5-------5-------|-3-------3-------|-3-------3-------|
 Ja, vi knullar... Vi har et...      Du er s smuk...  Det kan du tro...

  D                 A                 D                 A
|-----------------|-----------------|-----------------|-----------------|
|-----7-------7---|-----2-------2---|-----7-------7---|-----------------|
|-----7-------7---|-----2-------2---|-----7-------7---|-----6-------6---|
|---7---7---7---7-|---2---2---2---2-|---7---7---7---7-|-----7-------7---|
|-5-------5-------|-0-------0-------|-5-------5-------|---7---7---7---7-|
|-----------------|-----------------|-----------------|-5-------5-------|
                   Ikke nogen...     Nu har vi...      Og dyrket...

  G                 Gm                D                 A
|-----------------|-----------------|-----------------|-----------------|
|-----------------|-----------------|-----7-------7---|-----2-------2---|
|-----4-------4---|-----3-------3---|-----7-------7---|-----2-------2---|
|-----5-------5---|-----5-------5---|---7---7---7---7-|---2---2---2---2-|
|---5---5---5---5-|---5---5---5---5-|-5-------5-------|-0-------0-------|
|-3-------3-------|-3-------3-------|-----------------|-----------------|
 Vi ses igjen...   Ja, nste lrdag knullar vi p...   Nok engang

  D       Gm        D
|-----------------|-----------2-----|
|-----7-----------|-------7---3-----|
|-----7-------3---|-----7-----2-----|
|---7---7-----5---|---7-------0-----|
|-5---------5---5-|-5---------------|
|---------3-------|-----------------|
 Nok engang


TEKST:
I en liten bot - sittar vi och kyssar
Midt p resund - sidder to forelsked' bsser
En elskovsstund p resund
Kys mig med din fuldskgsmund
Javist, min danska ven 

Fr vi knullar ut p sundet - det' vor hemliga tradition
Vi kler lidt og nusser blidt - och smager lidt p korven hos verandre
Smak p korven min

Hov, hvad er nu det - der' en bd der kommer nrmer'
Se det norske flag - der r en enlig mann i boten
Hej p dig, jeg hetter Kjell - fr jeg vare med i kvell?
Ja ja, naturligvis

Fr vi knullar ut' p sundet - det er godt at vare tre
Bten vipper litt, vi boller blidt, och ni kan tro vi fr den i kanalen - i kanalen 
Ja, vi knullar ut' p sundet - fr jeg bappe p din orm?
Ja, guf min gren, s den bli'r ren - og hold om mig og sig jeg er jeres krammebjrn - Vor krammebjrn 

Ja, vi knullar ut' p sundet - vi har et kjmpe homsetref
Du er s smuk, fr jeg se din kuk
Det kan du tro, jeg har ikke noe bukser p
Ikke nogen bukser p

Nu har vi knullat ut' p sundet - og dyrket numsegymnastik
Vi ses igjen, adj min ven
Ja, nste lrdag knullar vi p resund
Nok engang, nok engang
Tap to rate this tab
# A B C D E F G H I J K L M N O P Q R S T U V W X Y Z