Song name
# A B C D E F G H I J K L M N O P Q R S T U V W X Y Z

Dresden Dolls - Backstabber tab

Main Riff

e|------------------------------------------7------------------------------|
B|-----------------------------------7-------------------------------------|
G|------------4-----4-6--4-6-8--6-8-----8--------9-------------------------|
D|---6-6--4-6----6-----------------------------------6-6-------------------|
A|---------------------------------------------------6-6-------------------|
E|---------------------------------------------------4-4-------------------|

e|------------------------------------------------14-----19--16-----------|
B|----------------12----12-14--12-14--16--14--16-----16-------------------|
G|--13-13--11-13-----13---------------------------------------------------|
D|----------------------------------------------------------------6-6-----|
A|----------------------------------------------------------------6-6-----|
E|----------------------------------------------------------------4-4-----|


Ab5                 C#5         Ab5

She's free are the words that I use 

          C#5       Eb5        Ab5

when I'm thinking about you at night time

Ab5                 C#5         Ab5

You're so free so why would you choose

      C#5             Eb5           Ab5

To profess all your thoughts at the right time

F#

ohhhhhhh

E             F#        Ab5     B5     C#m

And then you have to go insi--- i --- ide

          E                           F#           Ab5         C#m

Theres a man in the mirror and he's telling you to hide ...  away

        E            F#              Ab5               C#m

So you go into his bedroom and you take of all your clothes

    E                 Eb7th                 (No Chord)

But he never listens and he never knows     He's a backstabber

Tap to rate this tab
# A B C D E F G H I J K L M N O P Q R S T U V W X Y Z