Song name
# A B C D E F G H I J K L M N O P Q R S T U V W X Y Z

Dressy Bessy - I Saw Cinnamon tab

Highlighted       Show chord diagrams
Artist:	Dressy Bessy
Song:	I Saw Cinnamon
Album:	Sound Go Round (2003)

Tab by Joe Friedl (joefriedl.net)
1/18/2009


This is an acoustic version of the song. I've never heard or seen Dressy Bessy play this
acoustic, so this is just my interpretation.



G6/9	x00000
A	x02220
Cadd9	xx0010
D	xx0232
E	022100
G	320033


Capo on 1st fret


Intro x2:
G6/9  A
G6/9  A


Verse:
          [                            Repeat x4                            ]
e|----0---|0---0---0---0---2---2---2---2-2-|2---0-------0-------0---0---0---|
B|----0---|2---2---2---1---3---3---3---3-3-|3---1-------2-------2---2---0---|
G|----0---|2---2---2---0---2---2---2---2-2-|2---0-------2-------2---2---0---|
D|----0---|2---2---2---0---0---0---0---0-0-|0---0-------2-------2---2---0---|
A|----0---|0---0---0-----------------------|------------0-------0---0---0---|
E|--------|--------------------------------|--------------------------------|
          "I       saw     Cinna - mon      Rockin  downthe road..."


Intro x1


Verse x1


Chorus:
A                     D                       A                 E
   Outsmarting them,     we brought him home     and named him     C-Cinnamon
A                  D                     E    G
Now I'm not making thoughtless scenes up all- all by my own little...


Intro x1


Verse x1


Chorus x1


Intro x2


Outro:
e|----0---|0---0---0---0---2---2---2---2-2-|2---0-------0-------------------|
B|----0---|2---2---2---1---3---3---3---3-3-|3---1-------2-------------------|
G|----0---|2---2---2---0---2---2---2---2-2-|2---0-------2-------------------|
D|----0---|2---2---2---0---0---0---0---0-0-|0---0-------2-------------------|
A|----0---|0---0---0-----------------------|------------0-------------------|
E|--------|--------------------------------|--------------------------------|
Tap to rate this tab
# A B C D E F G H I J K L M N O P Q R S T U V W X Y Z