Song name
# A B C D E F G H I J K L M N O P Q R S T U V W X Y Z

Dressy Bessy - If You Should Try To Kiss Her tab

http://www.dressybessy.com

If You Should Try To Kiss Her" by Dressy Bessy
Tabbed by loopdeloop, loopdeloop123@yahoo.com

(Verse rhythm)
e|-------------------|
B|-------------------|
G|--(9)-(2)-(11)-(4)-|
D|--10---3---12---5--|
A|--10---3---12---5--|
E|---8---1---10---3--|

(Verse synth)
e|----------|-----------|----------|-----------------|
B|----------|-----------|----------|-----------------|
G|--5--9-12-|-10--14-17-|-7--10-14-|-12-17-16-14-12--|
D|----------|-----------|----------|-----------------|
A|----------|-----------|----------|-----------------|
E|----------|-----------|----------|-----------------|

(Chorus rhythm)
e|--------------|--------------|
B|--------------|--------------|
G|--5--7--5--10-|-5--7--9--10--|
D|--5--7--5--10-|-5--7--9--10--|
A|--3--5--3---8-|-3--5--7---8--|
E|--------------|--------------|

(Chorus lead)
e|-----10-12-13-15-|-15-13-12-10-12-10--|
B|--13-------------|--------------------|
G|-----------------|--------------------|
D|-----------------|--------------------|
A|-----------------|--------------------|
E|-----------------|--------------------|

(Chorus synth)(ending 1) (ending 2)
e|------------|----------------|---------------|
B|--13--12----|----------10-8--|---------------|
G|---------12-|-5-7-9-10-------|-5-7-9-10-9-7--|
D|------------|----------------|---------------|
A|------------|----------------|---------------|
E|------------|----------------|---------------|

(Transition after first chorus, 1:20)
e|-------|
B|-(12)--|
G|--12---|
D|--12---|
A|--10---|
E|-------|

(Ending rhythm)
e|--------------|
B|--------------|
G|--(9)---------|
D|--10---7-5-3--|
A|--10---7-5-3--|
E|---8---5-3-1--|

(Ending synth)
e|--------------|
B|--------------|
G|--12~--9-7-5--|
D|--------------|
A|--------------|
E|--------------|

Notes in (parenthesis) are only sometimes added to the progression.

The chorus rhythm was very difficult to make out due to being buried low in the mix. I 
out as best as I can what can be heard.
Tap to rate this tab
 
# A B C D E F G H I J K L M N O P Q R S T U V W X Y Z