Song name
# A B C D E F G H I J K L M N O P Q R S T U V W X Y Z

Dressy Bessy - Stop Foolin tab

http://www.dressybessy.com

"Stop Foolin'" by Dressy Bessy
Tabbed by loopdeloop, loopdeloop123@yahoo.com

(Intro/Verse rhythm)
e|-----------------|
B|-----------------|
G|-----------------|
D|--9--8--7--6--8--|
A|--9--8--7--6--8--|
E|--7--6--5--4--6--|

(Intro/Verse lead)
e|-----------------|
B|-----------------|
G|--8--7-6-5--5-7--|
D|-----------------|
A|-----------------|
E|-----------------|

(Chorus rhythm)
e|----------------------------------|
B|----------------------------------|
G|--9-8-9-8-9-8-9-8-11--------------|
D|--9-8-9-8-9-8-9-8-11--9--8--7--6--|
A|--7-6-7-6-7-6-7-6--9--9--8--7--6--|
E|----------------------7--6--5--4--|

(Post chorus)
e|--------------|
B|--------------|
G|--------------|
D|--9--8--7--6--|
A|--9--8--7--6--|
E|--7--6--5--4--|

(Song ends on)
e|-----|
B|-----|
G|-----|
D|--9--|
A|--9--|
E|--7--| let ring
Tap to rate this tab
 
# A B C D E F G H I J K L M N O P Q R S T U V W X Y Z