Song name
# A B C D E F G H I J K L M N O P Q R S T U V W X Y Z

Dressy Bessy - It Happens All The Time tab

"It Happens All The Time" by Dressy Bessy
Tabbed by loopdeloop, loopdeloop123@yahoo.com
(Intro/Verse lead)
e|-----------------------------------|
B|-----------------------------------|
G|-----------------------------------|
D|-----------------------------------|
A|-----------------------------------|
E|--7-7-7-7-7-7-7-7-0-0-0-0-0-0-0-0--| all palm muted

(Verse rhythm/Chorus rhythm)
e|----------|
B|----------|
G|-------9--|
D|--9----9--|
A|--9----7--|
E|--7-------|

(Prechorus)
e|------|
B|------|
G|--11--|
D|--11--|
A|---9--|
E|------|

(2nd verse rhythm)
e|-------------|
B|-------------|
G|--9---9------|
D|--9---9---9--|
A|--7---7---9--|
E|----------7--|

(2nd verse lead)
e|-------------------------------------|
B|-------------------------------------|
G|-------------------------------------|
D|-------------------------------------|
A|-------------------------------------|
E|--7-7-7-7-7-7-7-7-7-7-7-7-7-7-7-7-0--| all palm muted

(Song ends on)
e|-----|
B|-----|
G|-----|
D|--9--|
A|--9--|
E|--7--|
Tap to rate this tab
 
# A B C D E F G H I J K L M N O P Q R S T U V W X Y Z