Song name
# A B C D E F G H I J K L M N O P Q R S T U V W X Y Z

Dressy Bessy - Side 2 tab

"Side 2" by Dressy Bessy
Tabbed by loopdeloop, loopdeloop123@yahoo.com

(Intro/Chorus/Bridge rhythm)
e|--------------|
B|--------------|
G|--7--5--------|
D|--7--5--7--5--|
A|--5--3--7--5--|
E|--------5--3--|

(Verse rhythm)
e|--------------|
B|--------------|
G|--7-----5-----|
D|--7--5--5--7--|
A|--5--5--3--7--|
E|-----3-----5--|

(Chorus lead) (Ending 1) (Ending 2) (Song ends on)
e|------------|---------------------|---------------------|------------------|
B|------------|---------------------|---------------------|------------------|
G|------4-7-4-|-14-14--14-11----11--|-14-14--14-11--------|-14-14--14-16-14--|
D|----7-------|--------------14-----|--------------14-12--|------------------|
A|------------|---------------------|---------------------|------------------|
E|------------|---------------------|---------------------|------------------|

(Verse lead) (End on)
e|--14-12----12----|-9-8-7-6-5-4-3--|
B|--------15----15-|----------------|
G|-----------------|----------------|
D|-----------------|----------------|
A|-----------------|----------------|
E|-----------------|----------------|

(Bridge lead)
e|---------------------------|
B|---------------------------|
G|-------7---7---7---9b10r9--|
D|--7h9----9---9---9---------|
A|---------------------------|
E|---------------------------| The first time this is played, a 7 on the G and a 9 on 
D is skipped.

(Song ends on)
e|-----|
B|-----|
G|--7--|
D|--7--|
A|--5--|
E|-----|

The drums in this song make the verse chords sound country-ish. To simulate this without 
strum the bass note of each chord before the chord, as such:

e|-----------------------------------|
B|-----------------------------------|
G|----7---7---7---7------------------|
D|----7---7---7---7---5---5---5---5--|
A|--5-5-5-5-5-5-5-5---5---5---5---5--|
E|------------------3-3-3-3-3-3-3-3--|

To make it even more country, strum the chord in this manner instead of the power chord. 
progression is D G C A
Tap to rate this tab
# A B C D E F G H I J K L M N O P Q R S T U V W X Y Z