Song name
# A B C D E F G H I J K L M N O P Q R S T U V W X Y Z

Drew Holcomb And The Neighbors - Live Forever tab

CAPO 5th FRET

Chords
   G     Em     C
---3------0-----x---|
---2------2-----3---|
---0------2-----2---|
---0------0-----0---|
---0------0-----1---|
---3------0-----0---|

Intro:
--3-0---3-----3-0---3----|      or      (G Em C G) 2X
------3-----------3------|
-------------------------|
-------------------------|
-------------------------|
-------------------------|

G               Em                 C        G
Laughter is the only thing that'll keep you sane
G             Em             C          G
This world is dyin' more and more every day
G         Em   C       G
Don't let evil get you down
G       Em                 C          G
In this madness, spinning 'round and 'round

CHORUS:
G      Em     C        G
I want you to live forever
G    Em        C      G
Underneath the sky so blue

--3-----0-------3----3-----0-----3--|
----0-2---3------------0-2---3------|
------------0-2----------------0----|
------------------------------------|
------------------------------------|
------------------------------------|

G               Em         C        G
Some people say faith is a childish game
G               Em                 C         G
Well, play on, children, like it's Christmas day.
G         Em    C            G
Sing me a song, sing me a melody
G               Em                 C        G
You can sing out loud, 'cause you're a symphony.

CHORUS 2X

--3-----0-------3----3-----0-------------3---|
----0-2---3------------0-2---------3-2-0-----|
------------0-2--------------0h2-0-----------|
---------------------------------------------|
---------------------------------------------|
---------------------------------------------|


--3-----0-------3----3-----0-----3---|
----0-2---3------------0-2---3-------|
------------0------------------0-----|
--------------2----------------------|
-------------------------------------|
-------------------------------------|

G    Em               C       G
Take courage when the road is long
G             Em               C        G
Don't ever forget that you're never alone


CHORUS 3X


--3-----0-------3----3-----0-----3--|
----0-2---3------------0-2---3------|
------------0-2----------------0----|
------------------------------------|
------------------------------------|
------------------------------------|


(If anyone knows the lyrics and chords to the 4th verse that he plays live, feel free to 
let me know so I can add it. This is an unbelievable song. His new CD comes out 
FEBRUARY 8TH, 2011)
Tap to rate this tab
 
# A B C D E F G H I J K L M N O P Q R S T U V W X Y Z