Song name
# A B C D E F G H I J K L M N O P Q R S T U V W X Y Z

Drew Holcomb And The Neighbors - Hung The Moon chords

Highlighted       Show chord diagrams
Hung the Moon
Drew Holcomb and the Neighbors


This tab is for the live version of this song that you can find on Youtube.


Intro and verse:
    C      C/B     Am     Am/G      F*          
--------------------------------------0-------| 
-----1-1----1-1-----1-1-----1--1------1-------| 
-----0-0----0-0-----1-1-----0--0------2-------| 
-----2-2----2-2-----2-2-----2--2------3-------| 
--3-------2------0----------------------------| 
--------------------------3--------1----------|
The F* is arpeggiated with an emphasis on the open e string. 
The easiest way to play the F chord is to use your thumb on 
the low E string and use your 1st, 2nd and 3rd fingers for 
the others so you can keep the high e open.


Chorus:
 F            C                 G
--------------------------------3--------| 
-1------------1-----------------3--------| 
-2------------0-----------------0--------|  
-3------------2-----------------0--------| 
-----------------------------------------| 
-----------------------------------------|
As far as I can tell, the chords in the chorus are played 
this way with only the D,G and B strings being strummed.  
It just doesn't sound quite right to me when all the strings 
are strummed but play what sounds best to you.



  C       C/B        Am      Am/G         F*
i like the way you hung the moon, uh huh
        C        C/B   Am       Am/G       F*
well i just like being close to you, uh huh
             C     C/B     Am   Am/G         F*   
when you're gone i feel so blue       uh huh
        C        C/B      Am       Am/G        F*
yeah, i like the way you hung the moon uh huh

F         C         G         F      C         G
Uh huh                        uh huh


i like the way you know that dance, uh huh
i like the way you hold my hand, uh huh
spin me all across the floor, uh huh
yeah, i like the way you know that dance, uh huh
Uh huh                        uh huh


i like the way you sing your songs, uh huh
you've been singing to me all along, uh huh
the way you loved me won my heart, uh huh
yeah, i like the way you sing your songs, uh huh
Uh huh                        uh huh

-------------------------------------------------------------------------
------>There is a solo here. C major or A minor pentatonic scales<-------
------> would work                                               <-------
-------------------------------------------------------------------------

i put on that white dress for you, uh huh 
i told the preacher man well yes i do, uh huh
i'll stay and i'll grow grey with you, uh huh
yeah, i put on that white dress for you, uh huh
Tap to rate this tab
# A B C D E F G H I J K L M N O P Q R S T U V W X Y Z