Guitaretab - guitar tabs
Song name
# A B C D E F G H I J K L M N O P Q R S T U V W X Y Z
Home / D / Dri / Worker Bee tab

Dri - Worker Bee tab

DRI - Worker Bee

Intro

|--------------------------|
|--------------------------|
|--------------------------|
|--2-----4-----5-----7-----|
|--2-----4-----5-----7-----|
|--0-----2-----3-----5-----|


Verse
[ Tab from: http://www.guitaretab.com/d/dri/191829.html ]
|--------------------------------|
|------------------------------o-|
|--------------------------------|
|--2-----4-----5-----7-5-7-5-----|
|--2-----4-----5-----7-5-7-5---o-|
|--0-----2-----3-----5-3-5-3-----|


Chorus

|-------------------------<5>-<5>-<5>-<5>-<5>-<5>-----|
|---------------------------------------------------o-|
|-----------------------------------------------------|
|--9-----12-----10-----9------------------------------|
|--9-----12-----10-----9----------------------------o-|
|--7-----10-----8------7------------------------------|

Order:

Intro
Verse 2x
Chorus 2x
Verse 2x
Chorus 2x
Related for Worker Bee tab
Advertisement will be closed in 10 seconds