Song name
# A B C D E F G H I J K L M N O P Q R S T U V W X Y Z

Dri - Suit And Tie Guy tab

Artist/Band : DRI
Song        : Suit and Tie Guy
Tabbed by   : Bill Napier
Email       : marduk73@sbcglobal.net


Quick Background on this tab:

All other tabs were either not correct or horribly incomplete.  This, coupled with the 
fact there are just not enough DRI tabs out there.  I'm doing my part by translating and 
uploading this song.  Please help out.  I'd love a full collection of DRI tabs.
I'll do my best to make a more complete one.


Reference Source:
watched this for reference:  http://www.youtube.com/watch?v=mid1LPj4Y9M
paused / restarted / rewind / play again until I got it.


Quasi Legal Junk:
I do not own any rights to the song or the DRI name.  I am only doing this for 
entertainment purposes; mine and yours!  All rights belong to DRI.  ~~~Enjoy




Standard Tuning: EADGBE


1E|----------|----------------|-------------------------------|
2B|----------|----------------|-------------------------------|
3G|----------|----------------|-------------------------------|
4D|----------|-5/4-5/4--------|-4---4-5-----5-----5-----5-5/4-|
5A|-2--------|-5/4-5/4--------|-4-2-4-5-----5-----5-----5-5/4-|
6E|-0--0-0-0-|-3/2-3/2--2-2-2-|-2-0-2-3-3-3-3-3-3-3-3-3-3-3/2-|


1E|----------|----------------|-------------------------------|
2B|----------|----------------|-------------------------------|
3G|----------|----------------|-------------------------------|
4D|----------|-5/4-5/4--------|-5/4-5-6-----6-----6-----6-6/7-|
5A|-2--------|-5/4-5/4--------|-5/4-5-6-----6-----6-----6-6/7-|
6E|-0--0-0-0-|-3/2-3/2--2-2-2-|-3/2-3-4-4-4-4-4-4-4-4-4-4-4/5-|


1E|---------------------------------------------|
2B|-:-------------------------------------------|
3G|-:-------------------------------------------|
4D|---10---10-10---9---9-9---8---8-8---7-6\7--:-|
5A|---10---10-10---9---9-9---8---8-8---7-6\7--:-|
6E|---8----8--8----7---7-7---6---6-6---5-4\5----|



1E|-------------|------------|-------------|------------|-----------|
2B|-------------|------------|-------------|------------|-----------|
3G|-------------|------------|-------------|------------|-----------|
4D|-10-----9-X--|-8------7-X-|-10-----9-X--|-8------7-X-|-6-~~~~----|
5A|-10-----9-X--|-8------7-X-|-10-----9-X--|-8------7-X-|-6-~~~~----|
6E|-8------7-X--|-6------5-X-|-8------7-X--|-6------5-X-|-4-~~~~----|
                                                           Let ring
                                                           w/vibrato

1E|-----------|---------|---------|---------|
2B|-:---------|---------|---------|---------|
3G|-:---------|---------|---------|---------|
4D|-----6-----|---9-----|---8-----|---7---:-|
5A|-----6-----|---9-----|---8-----|---7---:-|
6E|---4-4-----|-7-7-----|-6-6-----|-5-5-----|



1E|----------------------------------------------------------|
2B|-:--------------------------------------------------------|
3G|-:--------------------------------------------------------|
4D|---6-6666-9-9999-8-8888-7-7777-6-6666-9-9999-8-8888-11--:-|
5A|---6-6666-9-9999-8-8888-7-7777-6-6666-9-9999-8-8888-11--:-|
6E|---4-4444-7-7777-6-6666-5-5555-4-4444-7-7777-6-6666-9-----| x3



1E|----------------------------|
2B|-:--------------------------|
3G|-:--------------------------|
4D|---6---12---10---10---4-5-:-|
5A|---6---12---10---10---4-5-:-|
6E|---4---10---9----8----2-3---| x4




1E|------------------------------------------|      |-----------|
2B|-:----------------------------------------|      |-----------|
3G|-:-----------7---------6---------4--------|      |-----------|
4D|---6---------7---------6---------4--4\5-:-|      |-6-~~~~----|
5A|---6---------5---5-5---4---4-4---2--4\5-:-|      |-6-~~~~----|
6E|---4---4-4--------------------------2\3---| x8   |-4-~~~~----|
                                                       Let ring
                                                       w/vibrato


1E|-----------|---------|---------|---------|
2B|-:---------|---------|---------|---------|
3G|-:---------|---------|---------|---------|
4D|-----6-----|---9-----|---8-----|---7---:-|
5A|-----6-----|---9-----|---8-----|---7---:-|
6E|---4-4-----|-7-7-----|-6-6-----|-5-5-----|



1E|----------------------------------------------------------|
2B|-:--------------------------------------------------------|
3G|-:--------------------------------------------------------|
4D|---6-6666-9-9999-8-8888-7-7777-6-6666-9-9999-8-8888-11--:-|
5A|---6-6666-9-9999-8-8888-7-7777-6-6666-9-9999-8-8888-11--:-|
6E|---4-4444-7-7777-6-6666-5-5555-4-4444-7-7777-6-6666-9-----| x3



1E|------------------------------------------|      |-----------|
2B|-:----------------------------------------|      |-----------|
3G|-:-----------7---------6---------4--------|      |-----------|
4D|---6---------7---------6---------4--4\5-:-|      |-6-~~~~----|
5A|---6---------5---5-5---4---4-4---2--4\5-:-|      |-6-~~~~----|
6E|---4---4-4--------------------------2\3---| x4   |-4-~~~~----|
                                                       Let ring
                                                       w/vibrato


1E|----------------------------|
2B|-:--------------------------|
3G|-:--------------------------|
4D|---6---12---10---10---4-5-:-|
5A|---6---12---10---10---4-5-:-|
6E|---4---10---9----8----2-3---| x4



1E|-----------------|---------------|---------------|---------|-----------|
2B|-----------------|---------------|---------------|---------|-----------|
3G|-----------------|---------------|---------------|---------|-----------|
4D|---6-6666666-5-5-|-6-6666666-9-7-|-6-6666666-5-5-|-6-x-----|-6-~~~~----|
5A|---6-6666666-5-5-|-6-6666666-9-7-|-6-6666666-5-5-|-6-x-----|-6-~~~~----|
6E|---4-4444444-3-3-|-4-4444444-7-5-|-4-4444444-3-3-|-4-x-----|-4-~~~~----|
                                                                Let ring
                                                                w/vibrato
Tap to rate this tab
# A B C D E F G H I J K L M N O P Q R S T U V W X Y Z