Song name
# A B C D E F G H I J K L M N O P Q R S T U V W X Y Z

Driftless Pony Club - House Of 1982 Built Like A Ship tab

Artist: Driftless Pony Club
Song: House Of 1982 Built Like a Ship
Tabbed by Airbourne775 (Lynn)
Tabbed June 20, 2012



Intro/Chorus


e|---------------------------------|
b|---------------------------------|
g|-----------10--9--9--10--10------|
d|--10-------10--9--9--10--10--10--|
a|--10-------8---7--7--8---8---10--|
e|--8--------------------------8---|

Verse

e|---------------------------------|
b|---------------------------------|
g|------------------------10----9--|
d|--10-----------5--------10----9--|
a|--10-----------5--------8-----7--|
e|--8------------3-----------------|

Bridge

e|------------------------------------------------------|
b|------------------------------------------------------|
g|------------------------------------------------------|
d|--------9-10-9-------------7-7--9-10-9----------------|
a|----10----------10--7--10---------------10--7--10-----|
e|--8------------------------------------------------8--|

I'm not too sure about the outro part.. it sounds like octaves, but I'm not 100% sure. I 
just play the intro/chorus again.



I did this all by ear so it may not be 100%, but I tried. It sounds right to me. Anyways 
these are generally the chords/notes played, listen to the song for timing and how many 
times you play each part, etc.

Enjoy!
Tap to rate this tab
# A B C D E F G H I J K L M N O P Q R S T U V W X Y Z