Song name
# A B C D E F G H I J K L M N O P Q R S T U V W X Y Z

Drist - Lost In A Miracle tab

-------------------------------------------------------------------------------
			     lost in a miracle - drist
-------------------------------------------------------------------------------
Tabbed by:david chilton
Email:atrcof@googlemail.com

Tuning:drop D  (DADGBE)

X2

e|-------------------------------------------------------------------------------------|
B|----------------------------------3--------------------------------------------------|
G|----------------------------------5--------------------------------------------------|
D|-------------5-------5-/7--/5-----5--------------------------------------------------|
A|-------7-------------7-/9--/7--------------------------------------------------------|
D|--7------------------7-/9--/7--------------------------------------------------------|

these chords are some of the ones in the next verse listen after the intro for the 
of this next part
e|--------------------------------------------------------------------------------|
B|-----------------3------------0-------------------------------------------------|
G|-----------------5------------0-------------------------------------------------|
D|--5--------------5------------0-------------------------------------------------|
A|--7--------------3--------------------------------------------------------------|
D|--7-----------------------------------------------------------------------------|

hope it helped please rate and comment
Tap to rate this tab
# A B C D E F G H I J K L M N O P Q R S T U V W X Y Z