Song name
# A B C D E F G H I J K L M N O P Q R S T U V W X Y Z

Drist - Two Hours tab

-------------------------------------------------------------------------------
			     two hours - drist
-------------------------------------------------------------------------------
Tabbed by:david chilton
Email:atrcof@googlemail.com

Tuning:EADGBE
    pm-------      pm-------         pm------      pm-----------------------|
e|--------------------------------------------------------------------------|
B|-------------7---------------8-8--------------5-------------7-7-----------|
G|--------------------------------------------------------------------------|
D|--------------------------------------------------------------------------|
A|-----------------------------------------------------------------7--9--5--|
E|--7--7--7----------7--7--7----------5--5--5-------7--7--7--------7--9--5--|            
                                                          (X2)

this is a bit of the verse

  pm---------------------------------------------------------------------------|
e|-----------------------------------------------------------------------------|
B|-----------------------------------------------------------------------------|
G|--------------------------------7--------------------------------------------|
D|--------------------------------7--------------------------------------------|
A|--------------------------------5--------------------------------------------|
E|-7-7-7-5-5-5-7-7-7-5-5-5-7-5-------------------------------------------------|

pm= palm mute
Tap to rate this tab
 
# A B C D E F G H I J K L M N O P Q R S T U V W X Y Z