Song name
# A B C D E F G H I J K L M N O P Q R S T U V W X Y Z

Drist - Cataracts tab

Cataracts, by Drist

(.)-Palm Mute
(b)-Bend
(/)-Slide Up
(\)-Slide Down


Intro (2X)

E|--------2-3-2-0-2----------2-3-2-0-2--|
B|--------2-3-2-0-2----------2-3-2-0-2--|
G|--------------------------------------|
D|--------------------------------------|
A|00--0-0------------00--0-0------------|
D|00--0-0------------00--0-0------------|

E|--------2-3-2-0-2----------2-3-2-0-2--|
B|--------2-3-2-0-2----------2-3-2-0-2--|
G|--------------------------------------|
D|--------------------------------------|
A|44--4-4------------44--4-4------------|
D|44--4-4------------44--4-4------------|


Verse

E|----------------------------------------------------------|
B|-----------------------------------3---3---------7---7----|
G|---------------------6---6---------2---2---------6---6----|
D|---------------------4---4---------0---0---------4---4----|
A|00--0-00-0-0-44--4-4-4-4-4-00--0-0---0-0-44--4-4---4-4----|
D|00--0-00-0-0-44--4-4---4---00--0-0---0---44--4-4---4------|
  ..  . .. . . ..  . .       ..  . .   .   ..  . .

E|----------------------------------------------------------|
B|-----------------------------------3---3---------7---7----|
G|---------------------6---6---------2---2---------6---6----|
D|---------------------4---4---------0---0---------4---4----|
A|00--0-00-0-0-44--4-4-4-4-4-00--0-0---0-0-44--4-4---4-4----|
D|00--0-00-0-0-44--4-4---4---00--0-0---0---44--4-4---4------|
  ..  . .. . . ..  . .       ..  . .   .   ..  . .


E|----------------------------------------------------------|
B|--------7b-------------------------3---3---------7---7----|
G|---------------------6---6---------2---2---------6---6----|
D|---------------------4---4---------0---0---------4---4----|
A|00--0-0------44--4-4-4-4-4-00--0-0---0-0-44--4-4---4-4----|
D|00--0-0------44--4-4---4---00--0-0---0---44--4-4---4------|
  ..  . ..     ..  . .       ..  . .   .   ..  . .

E|----------------------------------------------------------|
B|-----------------------------------3---3---------7---7----|
G|---------------------6---6---------2---2---------6---6----|
D|---------------------4---4---------0---0---------4---4----|
A|00--0-00-0-0-44--4-4-4-4-4-00--0-0---0-0-44--4-4---4-4----|
D|00--0-00-0-0-44--4-4---4---00--0-0---0---44--4-4---4------|
  ..  . .. . . ..  . .       ..  . .   .   ..  . .


Chorus

E|------------------------------------------------------------------|
B|3--------------------------------3--------------------------------|
G|2---------------/6------6--------2---------------/6------6--------|
D|0---------------/4-----4---4-----0---------------/4-----4---4-----|
A|0---------------/4----4------4---0---------------/4----4------4---|
D|0---------------/4---4-----------0---------------/4---4-----------|

E|------------------------------------------------------------------|
B|3--------------------------------3--------------------------------|
G|2------/4-------/6------/7-------2------/4-------/6------/7-------|
D|0------/2-------/4------/5-------0------/2-------/4------/5-------|
A|0------/2-------/4------/5-------0------/2-------/4------/5-------|
D|0------/2-------/4------/5-------0------/2-------/4------/5-------|
Tap to rate this tab
# A B C D E F G H I J K L M N O P Q R S T U V W X Y Z