Song name
# A B C D E F G H I J K L M N O P Q R S T U V W X Y Z

Drist - Lost In A Miracle chords

Highlighted       Show chord diagrams
Lost in a Miracle, by Drist


From the album Drist E.P.



Tuning: Drop D




Intro

e|---------------------------------------------------------------------------|
B|---------------------------------------------------------------------------|
G|--------4-----------------------------------4------------------------------|
D|-----5--------4-5-4-----5----------------5--------4-5-4----5---------------|
A|--0--------0--5-5-5-----3-------------0--------0--5-5-5----3---------------|
D|------------------------3----------------------------------3---------------|

Verse Chords
    Am                  F
e|--0-----------------------------------------|
B|--0-----------------------------------------|
G|--9-----------------------------------------|
D|--9-------------------5---------------------|
A|--7-------------------3---------------------|
D|--7-------------------3---------------------|

Prechorus Chords
    C                 Am                F
e|--------------------0----------------------------------|
B|--------------------1-(0)------------------------------|
G|--4-----------------2----------------------------------|
D|--5-----------------2-----------------5----------------|
A|--3-----------------0-----------------3----------------|
D|--------------------------------------3----------------|

Chorus Chords
    C           G        Am          F
e|---------------------------------------------------------------------------|
B|---------------------------------------------------------------------------|
G|-(12)--------(7)-------(9)--------(5)--------------------------------------|
D|--10----------5---------10-(9)-----3---------------------------------------|
A|--10----------5---------7----------3---------------------------------------|
D|--10----------5---------7----------3---------------------------------------|

Bridge Chords
   F         C          Am        G
e|-0-------------------------------------------------------------------------|
B|-x------------------------------8------------------------------------------|
G|-5--------------------9---------7------------------------------------------|
D|-3---------10---------10--------5------------------------------------------|
A|-3---------10---------7---------5------------------------------------------|
D|-3---------10---------7---------5------------------------------------------|


Verse 1

Am              F 
I got lost in a miracle
Am                  F
when I touched your face
Am               F
You remember the show that night?
Am             F
Never-ending embrace


Pre-chorus

C                   Am
Ooh, it never gets easier
C                         F
You know I've always been late

Chorus
            C                G
So here finally Is your love song
               Am                    F
But you're not here, I've waited too long
             C            G
You're in my dreams every day
               Am             F
My thoughts of you won't fade away


Verse 2

Am                      F 
They all laugh 'cause I never
Am                 F
Put your pictures away
Am                 F
When she asks, "Who do you love?"
Am                   F
Still wanna say your name


Prechorus

C                   Am
Ooh, it never gets easier
C                         F
You know I've always been late


Chorus
         C                G
So here finally Is your love song
               Am                    F
But you're not here, I've waited too long
             C            G
You're in my dreams every day
               Am             F
My thoughts of you won't fade away


Bridge

F          C
I cannot believe
                   Am
The most beautiful girl 
                   G
In the world loves me

F          C
I cannot believe
                   Am
The most beautiful girl 
                   G
In the world loves me


Chorus
         C                G
So here finally Is your love song
               Am                    F
But you're not here, I've waited too long
             C            G
You're in my dreams every day
               Am             F
My thoughts of you won't fade away


Tap to rate this tab
 
# A B C D E F G H I J K L M N O P Q R S T U V W X Y Z