Song name
# A B C D E F G H I J K L M N O P Q R S T U V W X Y Z

Drist - Cataracts tab

Help us improve GuitareTab! Take a short survey!
     -------------------------------------------------------------------------------
			     CATARACTS - drist
-------------------------------------------------------------------------------
Tabbed by: david chilton
Email:davidn.chilton@hotmail.co.uk

Tuning:normal(EADGBE)

intro x2
e|--------------------------------------------------------------------------------------|
B|-----------------1-2-1---1-2------------------1-2-1---1-------------------------------|
G|-----------------------2----------------------------2---------------------------------|
D|--------------------------------------------------------------------------------------|
A|-0-0---0---0-------------------0-0---0---0--------------------------------------------|
E|-0-0---0---0-------------------0-0---0---0--------------------------------------------|

e|--------------------------------------------------------------------------------------|
B|---------------1-2-1----1-2-----------------1-2-1---1---------------------------------|
G|---------------------2----------------------------2-----------------------------------|
D|--------------------------------------------------------------------------------------|
A|--------------------------------------------------------------------------------------|
E|-2-2---2---2------------------2-2---2---2---------------------------------------------|
verse
e|------------------------------------------------------------|
B|------------------------------------------------------------|
G|------------------------------11---11--------------11---11--|
D|------------------------------11---11--------------11---11--|
A|------------------------------9----9---------------9----9---|
E|--0-0-0-0--0--0--0--2-2-2-2--------------2-2-2-2------------|

e|---------------------------------------------------------------------------------|
B|---------------------------------------------------------------------------------|
G|-------------11---11-------------------------------------------------------------|
D|-------------11---11-------------------------------------------------------------|
A|-------------9----9--------------------------------------------------------------|
E|--5-5-5-5------------------------------------------------------------------------|
chorus
e|---------------------------------------------------------------------------------------|
B|-------------------------------------------------------------------9-------------------|
G|----7-------------7-------------11------------11---------------11----11----------------|
D|----7-------------7-------------11------------11-----------11----------11--------------|
A|----5-------------5-------------9--------------9-------9-------------------------------|
E|---------------------------------------------------------------------------------------|


sorry i didnt have much time but this is the main bits listen to the song for the timing 
how much times through

solo
e|------------------------------------------------------------------------------------|
B|-----------------------------9---11-------------------------------------------------|
G|------------------------12----------------------------------------------------------|
D|--------------------11--------------------------------------------------------------|
A|-/9------9--11--12------------------------------------------------------------------|
E|------------------------------------------------------------------------------------|

i dont know the rest of this bit exactly but work from this     then....

  2.55 (time) then it goes

e|-14--12--10--9--12--10--9-------------------------12----------------14--|
B|------------------------------10--9--10--9--10--9----9--10--9--10-------|
G|------------------------------------------------------------------------|
D|------------------------------------------------------------------------|
A|------------------------------------------------------------------------|
E|------------------------------------------------------------------------|

e|--12--10-----9--10--9--10--------------------------------------------------------------|
B|----------------------------10---------------------------------------------------------|
G|---------------------------------------------------------------------------------------|
D|---------------------------------------------------------------------------------------|
A|---------------------------------------------------------------------------------------|
E|---------------------------------------------------------------------------------------|

i hope this helped!

| /  slide up


===============================================================================
Related for Cataracts tab