Song name
# A B C D E F G H I J K L M N O P Q R S T U V W X Y Z

Dritte Wahl - Rausch tab

             Intro:
e---------------------------------------|
h---------------------------------------|
g---------------------------------------|
d---------------------------------------|   repeat 4x
a-12-12-10-12-12-10-12-12-10-12-10-7-10-|
e-10-10--8-10-10--8-10-10--8-10--8-5--8-|

Main
e---------------------------------------|
h---------------------------------------|
g---------------------------------------|
d---------------------------------------|   repeat 4x
a-12-12-10-12-12-10-12-12-10-12-10-7-10-|
e-10-10--8-10-10--8-10-10--8-10--8-5--8-|

e---------------------------------------------|
h---------------------------------------------|
g---------------------------------------------|
d---------------------------------------------|
a-12-8-5-3-12-8-5-3--12-10-10-10-12-10-10-10--|
e-10-6-3-1-10-6-3-1--10--8--8--8-10--8--8--8--|

e---------------------------------------|
h---------------------------------------|
g---------------------------------------|
d---------------------------------------|   repeat 4x
a-12-12-10-12-12-10-12-12-10-12-10-7-10-|
e-10-10--8-10-10--8-10-10--8-10--8-5--8-|

e---------------------------------------------|
h---------------------------------------------|
g---------------------------------------------|
d---------------------------------------------|
a-12-8-5-3-12-8-5-3--12-10-10-10-12-10-10-10--|
e-10-6-3-1-10-6-3-1--10--8--8--8-10--8--8--8--|
Tap to rate this tab
# A B C D E F G H I J K L M N O P Q R S T U V W X Y Z