Song name
# A B C D E F G H I J K L M N O P Q R S T U V W X Y Z

Dritte Wahl - Augen Auf tab

-------------------------------------------------------------------------------
			     Dritte Wahl - Augen auf
-------------------------------------------------------------------------------
Tabbed by: Metal Benny
Email: benny_xy@web.de

Tuning: standard tuning

e|-----------------------------------------------------------------------|
B|-----------------------------------------------------------------------|
G|-----------------------------------------------------------------------|
D|-----------------------------------------------------------------------|
A|-----------------------------------------------------------------------|
E|-8-5-5-8-5-5-8-5-8-5-5-8-5-5-8-5-8-5-5-8-5-5-8-5-7-7-7-8-10-8-7--------|

e|-----------------------------------------------------------------------|
B|-----------------------------------------------------------------------|
G|-----------------------------------------------------------------------|
D|-----------------------------------------------------------------------|
A|-----------------------------------------------------------------------|
E|-8-5-5-8-5-5-8-5-8-5-5-8-5-5-8-5-8-5-5-8-5-5-8-5-7-3-------------------|

e|-----------------------------------------------------------------------|
B|-----------------------------------------------------------------------|
G|-----------------------------------------------------------------------|
D|-----------------------------------------------------------------------| 2x     
A|-10-7-10-7-10-7-10-7-10-7-10-7-10-5-10-7-10-10-9-9-9-9-5-5-5-5---------|
E|--8-5--8-5--8-5--8-5--8-5--8-5--8-5--8-5--8-5--7-7-7-7-3-3-3-3---------|
Tap to rate this tab
# A B C D E F G H I J K L M N O P Q R S T U V W X Y Z