Drive A - Out Of Focus tab

Ok, nobody has this tab yet, i want to find out how correct
i am i only know some of the parts but this is what i know so 
far any question leave a comment or email me at pillarocka2011@yahoo.com

-------------------------------------------------------------------------------
			     Out of Focus - Drive A
-------------------------------------------------------------------------------
Tabbed by: Craig Hartzel
Email: Pillarocka2011@yahoo.com

Tuning:1/2 step down

(not the fast intro but you'll know which part by playing it)

e|---------------------------------------------------------------------------|
B|---------------------------------------------------------------------------|
G|---------------------------------------------------------------------------|
D|---------------------------------------------------------------------------|
A|---10-10--9-9--8-8-8-------------------------------------------------------|
E|----8--8--7-7--6-6-6-------------------------------------------------------|


~When he starts singing~
e|---------------------------------------------------------------------------|
B|---------------(only hit the 3 in the 345 and only the 5 in the 567 etc)---|
G|---------------------------------------------------------------------------|
D|---------------------------------------------------------------------------|
A|---7-7-7-7-7-7-7-7\-----------------7-----------------7--------------------|
E|---5-5-5-5-5-5-5-5\-----0-0-345-567-------0-0-345-567----------------------|

e|---------------------------------------------------------------------------|
B|---------------------------------------------------------------------------|
G|---------------------------------------------------------------------------|
D|---------------------------------------------------------------------------|
A|---7-7-7-7-7-7-7-7\-----------------7-----------------7--------------------|
E|---5-5-5-5-5-5-5-5\-----0-0-345-567-------0-0-345-567----------------------|

e|---------------------------------------------------------------------------|
B|---------------------------------------------------------------------------|
G|-------------------(4th time do this )-------------------------------------|
D|---------------------------------------------------------------------------|
A|---------------7----------------9------------------------------------------|
E|---0-0-345-567------0-0-345-567--------------------------------------------|

e|---------------------------------------------------------------------------|
B|---------------------------------------------------------------------------|
G|---------------------------------------------------------------------------|
D|---------------------------------------------------------------------------|
A|---------------7---------------7--------------7--------765-543-------------|
E|---0-0-345-567-----0-0-345-567----0-0-345-567---0-0-345--------------------|



Chorus

e|---------------------------------------------------------------------------|
B|---------------------------------------------------------------------------|
G|---------------------------------------------------------------------------|
D|-------------------------------------(3x)----------------------------------|
A|---222222---555555---666666---777777---------------------------------------|
E|---000000---333333---444444---555555---------------------------------------|
on the 4th time end like this

e|---------------------------------------------------------------------------|
B|---------------------------------------------------------------------------|
G|---------------------------------------------------------------------------|
D|---------------------------------------------------------------------------|
A|---222222---555555---666666----7-------------------------------------------|
E|---000000---333333---4444444---5-------------------------------------------|



************************************

| /   slide up
| \   slide down
| h   hammer-on
| p   pull-off
| ~   vibrato
| +   harmonic
| x   Mute note
| b   Bend
| pb  Pre-bend
| br  Bend release
| pbr Pre-bend release
| brb Bend release bend

***********************************
Tap to rate this tab
 
# A B C D E F G H I J K L M N O P Q R S T U V W X Y Z