Song name
# A B C D E F G H I J K L M N O P Q R S T U V W X Y Z

Drive A - Smiling With Hate tab

this is the intro for Drive A's smiling with hate. I did this by ear and it sounds 
ok to me.Any corrections email me at silencio1994@yahoo.com thanks.

                 Repeat all this 5x
e---9-9-------------------8-8-----------------------------------|
b-------10-10-------10-10-----9-9-------9-9---------------------|
g-------------13-13---------------12-12-------------------------|
D---------------------------------------------------------------|
A---------------------------------------------------------------|
E---------------------------------------------------------------|
 then this and the chord at the end is the beggining of the verse
 I will put the rest of it in a while
e---------------------------------------------------------------|
b--1010101010101010101010-999999999999-1313131313-----10--------|
g------------------------------------------------------9--------|
D--7777777777777777777777-666666666666-1010101010-----11--------|
A---------------------------------------------------------------|
E---------------------------------------------------------------|
 
 Pre-chorus      Chorus-the first 5 chords will be down strokes then the
                        2nd time find out the strumming yourself 
e------------     e---------------------------------------------|
b---7-6-4----     b---------------------------------------------|
g-5-7-6-4----Then g-6-4---------6-4-----------------------------|
D-6-7-6-4----     D-6-4-5-4-2---6-4-5-4-------------------------|
A-6-5-4-2----     A-4-2-5-4-2---4-2-5-2-------------------------|
E-4----------     E-----3-2-0-------3-0-------------------------|

  I will update this tab and put the rest on and fix any mistakes
  but for now enjoy this Peace
Tap to rate this tab
 
# A B C D E F G H I J K L M N O P Q R S T U V W X Y Z