Song name
# A B C D E F G H I J K L M N O P Q R S T U V W X Y Z

Drive-by Argument - Sex Lines Are Expensive Comedy tab

---------------------------------------------------------------------------
          Sex lines are expensive comedy - Drive-By Argument
---------------------------------------------------------------------------
Tabbed by:Ash9486
Email:ash_948@hotmail.com

Tuning:Drop D

Intro/Verse
e|-----5------------------------------------|
B|-5-6---5-5-6-5---5------------------------|
G|---------------7--------------------------|Palm mute this during the verse
D|------------------------------------------|apart from the 5 on the high E
A|------------------------------------------|
E|------------------------------------------|

Chorus 1:
e|------------------|
B|-------------10---|
G|-------------9----|
D|--3--5--7---------|
A|--3--5--7---------|
E|--3--5--7---------|

Chorus 2:
e|--------------5--------|
B|----------5-6---5-6-5--|
G|-----------------------|
D|--3--5-----------------|
A|--3--5-----------------|
E|--3--5-----------------|

Chorus 3:
e|------------------|
B|------------------|
G|------------------|
D|--3--5--7---------|
A|--3--5--7---------|
E|--3--5--7---------|

End:
e|---------------|
B|---------------|
G|---------------|
D|--77777--------|
A|--77777--------|
E|--77777--------|

Structure:
intro
intro p.m
chorus 1-2-1-3
intro
intro p.m
chorus 1-2-1-3
bridge
intro p.m
chorus 2-2-2-End
Tap to rate this tab
# A B C D E F G H I J K L M N O P Q R S T U V W X Y Z