Song name
# A B C D E F G H I J K L M N O P Q R S T U V W X Y Z

Drive-by Truckers - Ghost To Most tab

First tab so don't be too hard on it :)

These chords are played throughout the entire verse:


e|---------------------------------------------------------------------------|
B|---------------------------------------------------------------------------|
G|---------------------------------------------------------------------------|
D|--3-3--3-3-3----------------5-5--5-5-5-------------------------------------|
A|--1-1--1-1-1---3-3--3-3-3---3-3--3-3-3---0-0--0-0-0------------------------|
E|---------------3-3--3-3-3----------------0-0--0-0-0------------------------|

And these chords are for the chorus:

e|---------------------------------------------------------------------------|
B|---------------------------------------------------------------------------|
G|---------------------------------------------------------------------------|
D|------------------------3-3--3-3-------------------------3-3--3-3----------|
A|--3-3--3-3---5-5--5-5---1-1--1-1---3-3--3-3---3-3--3-3---1-1--1-1----------|
E|--3-3--3-3---5-5--5-5--------------3-3--3-3---3-3--3-3---------------------|


e|---------------------------------------------------------------------------|
B|---------------------------------------------------------------------------|
G|---------------------------------------------------------------------------|
D|--5-5--5-5---3-3--3-3------------------------------------------------------|
A|--3-3--3-3---1-1--1-1------------------------------------------------------|
E|---------------------------------------------------------------------------|

And well that's pretty much it to the extent of my knowledeg though i have checked it 
it appears to be right.
Tap to rate this tab
 
# A B C D E F G H I J K L M N O P Q R S T U V W X Y Z