Song name
# A B C D E F G H I J K L M N O P Q R S T U V W X Y Z

Drive-by Truckers - Used To Be A Cop tab

Guitar tuned down two steps to   D G C F A d

Rhythm guitar parts only - bridge might use variations



Verse
d---------------------------------------------------------|
A---------------------------------------------------------|
F-----4-----4-----4-----4-----4-----4-----4-----4---------|
C---------------------------------------------------------|
G--2------------------------------------------------------|
D--------------2-----------3-----------0------------------|



Transition
d---------------------------------------------------------|
A---------------------------------------------------------|
F-----12-----12-----12-----12-----12-----12--9------------|
C---------------------------------------------------------|
G-----10-----10-----10-----10-----10-----10--7------------|
D---------------------------------------------------------|

d---------------------------------------------------------|
A---------------------------------------------------------|
F-----12-----12-----12--14--16----14-----12---9-----------|
C---------------------------------------------------------|
G-----10-----10-----10--12--14----12-----10---7-----------|
D---------------------------------------------------------|



Bridge
D Am C G



D   xx0232
Am  x02210
C   x32010
G   3x000x
Tap to rate this tab
# A B C D E F G H I J K L M N O P Q R S T U V W X Y Z