Song name
# A B C D E F G H I J K L M N O P Q R S T U V W X Y Z

Drive Like Jehu - Bullet Train To Vegas tab

This is based mostly off of the live version of the song.  Yes, I am aware that there a 
of noodling crap that I didn't get.  It's so inconsistant that if you actually have more 
one guitarist, you could probably wing it and be fine.

x = left-hand mute
p = pull-off
b = bend
r = release
~ = let ring
(#) = ghost note

Intro

e--------|-x-x-x-x-x-x-x-x--|--------|--------|
B--------|-x-x-x-x-x-x-x-x--|--------|--------|
G--------|-x-x-x-x-x-x-x-x-.|.-------|-------.|
D--------|-x-x-x-x-x-x-x-x-.|.-------|-------.|
A--------|-x-x-x-x-x-x-x-x--|--------|--------|
E-0~~~~~-|-x-x-x-x-x-x-x-x--|-0~~~~~-|-0~~~~~-|

e-----------------|------------------|
B-----------------|------------------|
G---9p(0)-9p(0)---|---9p(0)-9p(0)---.|
D---x-----x-------|---x-----x-------.|
A---7p(0)-7p(0)---|---7p(0)-7p(0)----|
E-0~~-----------0-|-0~~-----------0--|

e-12~~~~-|-12~~~~--|
B-x------|-x-------|
G-9b10r9-|-9b10r9-.|
D--------|--------.|
A--------|---------|
E--------|---------|

e-----------------|------------------|
B-----------------|------------------|
G---9p(0)-9p(0)---|---9p(0)-9p(0)---.|
D---x-----x-------|---x-----x-------.|
A---7p(0)-7p(0)---|---7p(0)-7p(0)----|
E-0~~-----------0-|-0~~-----------0--|


Verse

e----------------|-----------------|
B----------------|-----------------|
G-9~~~~~~~-~~~~~~|~~~~~~~~~~~~~~~~.|
D-x--------------|----------------.|
A-7~~~~~~~~~~~~~~|~~~~~~~~~~~~~~~~-|
E-0~~~~~~~~~~~~~~|~~~~~~~~~~~~~~~~-|

We ride the bullet train to Vegas
The minute that we blow this burb
Just as far as it'll take us
Pay the man and ride the turd

e-------------|-------------------|
B-------------|-------------------|
G-9~~~~~~~~~~-|-x-x-x-x-x-x-x-x-.-|
D-x-----------|-x-x-x-x-x-x-x-x-.-|
A-7~~~~~~~~~~-|-x-x-x-x-x-x-x-x---|
E-0~~~~~~~~~~-|-x-x-x-x-x-x-x-x---|

Sopping wet,   we're stinking drunk we'll
bob for tokens up and down

e----------------|-----------------|
B----------------|-----------------|
G-9~~~~~~~-~~~~~~|~~~~~~~~~~~~~~~~.|
D-x--------------|----------------.|
A-7~~~~~~~~~~~~~~|~~~~~~~~~~~~~~~~-|
E-0~~~~~~~~~~~~~~|~~~~~~~~~~~~~~~~-|

pull up a dick and suck away
gotta milk that sacred...

e-----------------|------------------|
B-----------------|------------------|
G---9p(0)-9p(0)---|---9p(0)-9p(0)----|
D---x-----x-------|---x-----x--------|
A---7p(0)-7p(0)---|---7p(0)-7p(0)----|
E-0~~-----------0-|-0~~-----------0--|

..cow               now

e-----------------|------------------|
B-----------------|------------------|
G---9p(0)-9p(0)---|---9p(0)-9p(0)----|
D---x-----x-------|---x-----x--------|
A---7p(0)-7p(0)---|---7p(0)-7p(0)----|
E-0~~-----------0-|-0~~-----------0--|

  now               now

Chorus (this part I'm still a little shaky on)

e-7~~~~~|~~~~~|-8~~~~~|~~~~~|-------|-----|
B-x-----|-----|-x-----|-----|-------|-----|
G-4~~~~~|~~~~~|-5~~~~~|~~~~~|-7~~~~~|~~~~~|
D-------|-----|-------|-----|-x-----|-----|
A-------|-----|-------|-----|-5~~~~~|~~~~~|
E-------|-----|-------|-----|-------|-----|

  I             can't        wait     to come

e-----------------|------------------|
B-----------------|------------------|
G---9p(0)-9p(0)---|---9p(0)-9p(0)---.|
D---x-----x-------|---x-----x-------.|
A---7p(0)-7p(0)---|---7p(0)-7p(0)----|
E-0~~-----------0-|-0~~-----------0--|

  home              home

e-7~~~~~|~~~~~|-8~~~~~|~~~~~|-------|-----|
B-x-----|-----|-x-----|-----|-------|-----|
G-4~~~~~|~~~~~|-5~~~~~|~~~~~|-7~~~~~|~~~~~|
D-------|-----|-------|-----|-x-----|-----|
A-------|-----|-------|-----|-5~~~~~|~~~~~|
E-------|-----|-------|-----|-------|-----|

  I             can't        wait     to come

e-----------------|------------------|
B-----------------|------------------|
G---9p(0)-9p(0)---|---9p(0)-9p(0)---.|
D---x-----x-------|---x-----x-------.|
A---7p(0)-7p(0)---|---7p(0)-7p(0)----|
E-0~~-----------0-|-0~~-----------0--|

  home              home

Play the verse and chorus all the way through

end on:

e------|------|------|-------||
B------|------|------|-------||
G------|------|------|-------||
D------|------|------|-------||
A------|------|------|-------||
E-0~~~-|-0~~~-|-0~~~-|-0-----||

http://www.swamirecords.com/jehu.html
Tap to rate this tab
# A B C D E F G H I J K L M N O P Q R S T U V W X Y Z