Song name
# A B C D E F G H I J K L M N O P Q R S T U V W X Y Z

Drive Like Jehu - Caress tab

Notes on playing: Use as many downstrokes as possible.  Play it really sloppy and 
strum the top (eBG) strings every so often.

Intro:

e---------------|--------------------------------------|
B---------------|--------------------------------------|
G-9-9-9-9-9-9-9-|-/12-12/16-16/19-19-12-12/16-16/19-19-|
D---------------|--------------------------------------|
A-7-7-7-7-7-7-7-|-/10-10/14-14/17-17-10-10/14-14/17-17-|
E---------------|--------------------------------------|
(tremolo pick really fast)

e---------------|----------------------|
B---------------|----------------------|
G-9-9-9-9-9-9-9-|-/12//19-19-12//19-19-|
D---------------|----------------------|
A-7-7-7-7-7-7-7-|-/10//17-17-10//17-17-|
E---------------|----------------------|
(tremolo pick really fast)

e---------------|--------------------------------------|
B---------------|--------------------------------------|
G-9-9-9-9-9-9-9-|-/12-12/16-16/19-19\18\16/19\18-18-18-|
D---------------|--------------------------------------|
A-7-7-7-7-7-7-7-|-/10-10/14-14/17-17\16\14/17\16-16-16-|
E---------------|--------------------------------------|
(tremolo pick really fast)

e----------------------|-12-12-12-12-12-12-|
B----------------------|-------------------|
G-18-18-18-18-18-18-18-|-9--9--9--9--9--9--|
D----------------------|-------------------|
A-16-16-16-16-16-16-16-|-------------------|
E----------------------|-------------------|
(tremolo pick really fast)

e-12-12-12~~~--12-12-12--12-12-12--12-12-|
B----------------------------------------|
G-9--9--9~~~~--9--9--9---9--9--9---9--9-.|
D---------------------------------------.|
A----------------------------------------|
E----------------------------------------|

Verse:

e-12~~~~|
B-------|
G-9~~~~~|
D-------|
A-------|
E-------|
  Gracie, we're makin' babies, yeah. We're barefoot on the tiles.

e---------------------|
B---------------------|
G---------------------|
D---------------------|
A------------------7~~|
E-3-2~~0~2-3-0-0-3-0~~|
                      Make 'em soft and small and tender. It's the

e-12~~~~|
B-------|
G-9~~~~~|
D-------|
A-------|
E-------|
 biggest hazard of your gender gotta hold it by yourself...

Bridge:

  e----------------|
  B----------------|
7 G---------------.|
8 D---------------.|
  A----------------|
  E-3-2~~0~2-3-0-0-|

Chorus:

e---2~|
B---2~|
G---2~|
D-4~~~|
A-4~~~|
E-2~~~|
Pleasure...

e-12p10h12p10h12p10h12p10h12p10h12p10h12p10h12p10-|
B-------------------------------------------------|
G------------------------------------------------.|
D------------------------------------------------.|
A-------------------------------------------------|
E-------------------------------------------------|
Ain't hard to find fault...

e-12h14p12h14p12h14p12h14p12h14p12h14p12h14p12h14-|
B-------------------------------------------------|
G-------------------------------------------------|
D-------------------------------------------------|
A-------------------------------------------------|
E-------------------------------------------------|
We learned to love the hard way

e-15h17p15h17p15h17p15h17p15h17p15h17p15h17p15h17-|
B-------------------------------------------------|
G-------------------------------------------------|
D-------------------------------------------------|
A-------------------------------------------------|
E-------------------------------------------------|
You're gonna learn it

  e--------------|
  B--------------|
7 G--------------|
8 D-4--4---x-x-x-|
  A-4--4---x-x-x-|
  E-2--2---x-x-x-|
    too

Post-Chorus:

  e---------------|
  B---------------|
7 G--------------.|
8 D-4--4---x-x-x-.|
  A-4--4---x-x-x--|
  E-2--2---x-x-x--|

(Verse, Bridge, Chorus, Post-Chorus)

Interlude:

e----------------------|
B----------------------|
G-17-17-17-17-17-17-17-|
D----------------------|
A-15-15-15-15-15-15-15-|
E----------------------|
(tremolo pick really fast)


  e-x-x-x-x--x-x--x--x--x--|
  B-x-x-x-x--x-x--x--x--x--|
7 G-x-x-x-x--x-x--x--x--x-.|
8 D-x-x-x-x--x-x--x--x--x-.|
  A------------------------|
  E------------------------|

e---------------------|
B---------------------|
G-3-x-0-x-3-x-0-x-3-0-|
D---------------------|
A---------------------|
E---------------------|

  e----------------|
  B----------------|
7 G---------------.|
8 D---------------.|
  A----------------|
  E-3-2~~0~2-3-0-0-|

e------------------|--------------|
B------------------|--------------|
G------------------|-------------.|
D----------4-4-4-4-|-------------.|
A----------4-4-4-4-|--------------|
E-3-2~~0~2-2-2-2-2-|-2~~0~2-3-0-0-|

e------------------|-------|
B------------------|-------|
G------------------|-------|
D----------4-4-4-4-|-4-----|
A----------4-4-4-4-|-4-----|
E-3-2~~0~2-2-2-2-2-|-2-----|
Tap to rate this tab
# A B C D E F G H I J K L M N O P Q R S T U V W X Y Z