Song name
# A B C D E F G H I J K L M N O P Q R S T U V W X Y Z

Drive - Cursed tab

intro x4
e(----------------------)
b(----------------------)
g(----------------------)
d(--2-2-3p2-0h2-0h2-3p2-)
a(--2-2-3p2-0h2-0h2-3p2-)
D(--2-2-3p2-0h2-0h2-3p2-)

intro/chorus x4                                  x2
e(----------------------------------------)(------------)
b(--------------------------------------9-)(------------)
g(--------------------------------------9-)(--7777-7777-)
d(--2-2-3p2-0h2-0h2-3p2-2-2-3p2-0h2-0h2---)(------------)
a(--2-2-3p2-0h2-0h2-3p2-2-2-3p2-0h2-0h2---)(------------)
D(--2-2-3p2-0h2-0h2-3p2-2-2-3p2-0h2-0h2---)(------------)

verse x6            pre-solo
e(------------)   (-----------------------)
b(------------)   (-----------------------)
g(------------)   (-----------------------)
d(--2222-2222-)   (--2-66-2-66-2-66-88752-)
a(--2222-2222-)   (--2----2----2----88752-)
D(--2222-2222-)   (--2----2----2----88752-)

solo
e(--13-10p9-6-7-9-6-4-6-4-2-4-2-0h2p0-------------------------------------)
b(------------------------------------2p0-0-2-4-2-0--h2p0--------------12-)
g(--------------------------------------------------------2p0h4/7-10-10---)
d(------------------------------------------------------------------------)
a(------------------------------------------------------------------------)
D(------------------------------------------------------------------------)

solo continued                                   last chords
e(------------------------------------------)    (--------)
b(--11-12p11-------8h10-6h8-5-7-999/12------)    (--------)
g(-----------12p11--------------------------)    (--------)
d(------------------------------------------)    (--1-1-1-)
a(------------------------------------------)    (--1-1-1-)
D(-------------------------------------////-)    (--1-1-1-)
                                      scape
Tap to rate this tab
 
# A B C D E F G H I J K L M N O P Q R S T U V W X Y Z