Song name
# A B C D E F G H I J K L M N O P Q R S T U V W X Y Z

Driven - First Drive tab

                                  By:DRIVEN

e|---------------------------------------------------------------------------|
B|-0-----0-----0-----0-----2-----2-----2-----2-----0-----0-----0-----0-------|
G|---0-----0-----0-----0-----2-----2-----2-----2-----0-----0-----0-----0-----|
D|-----0-----0-----0-----0-----2-----2-----2-----2-----0-----0-----0-----0---|
A|---------------------------------------------------------------------------|
E|---------------------------------------------------------------------------|

e|---------------------------------------------------------------------------|
B|-11-------11-------11-------11-------10-------10-------0-----0-----0-------|
G|----11-------11-------11-------11-------10-------10------0-----0-----0-----|
D|-------11-------11-------11-------11-------10-------10-----0-----0-----0---|
A|---------------------------------------------------------------------------|
E|---------------------------------------------------------------------------|

e|---------------------------------------------------------------------------|
B|-0-----5-----5-----5-----5-----0-----0-----0-----0-------------------------|
G|---0-----5-----5-----5-----5-----0-----0-----0------0----------------------|
D|-----0-----5-----5-----5-----5-----0-----0-----0-------0-------------------|
A|---------------------------------------------------------------------------|
E|---------------------------------------------------------------------------|
Tap to rate this tab
# A B C D E F G H I J K L M N O P Q R S T U V W X Y Z