Song name
# A B C D E F G H I J K L M N O P Q R S T U V W X Y Z

Drivin N Cryin - Count The Flowers tab

Intro/Riff
e|----------------------|
B|----------------------|
G|----------------------|
D|-------9-9------------|
A|-------7-7------5-----|
E|---12\------5/7---7---|
      ^Only after feedback at the beginning

Verse/Chorus
e|-------------------------------------|
B|-------------------------------------|
G|-------------------------------------|
D|---9-9-9-9-7-7-7-7-------------------|
A|---7-7-7-7-5-5-5-5-7-7-7-7-9-9-9-9---|
E|-------------------5-5-5-5-7-7-7-7---| -Riff follows this
"Office workers 9-to-5, they just don't realize..."

Pre-Chorus
e|---------------------------------------------------------------------|
B|---------------------------------------------------------------------|
G|---------------------------------------------------------------------|
D|---9-9-9-9-9-9-9-9-7-7-7-7-7-7-7-7-----------------------------------|
A|---7-7-7-7-7-7-7-7-5-5-5-5-5-5-5-5-7-7-7-7-7-7-7-7-9-9-9-9-9-9-9-9---|
E|-----------------------------------5-5-5-5-5-5-5-5-7-7-7-7-7-7-7-7---|
"This ain't no Hare Krishna, this ain't no moonie son, I'm not from Argentina, I'm just 
to sell some sun..."

Bridge/Outro
e|-----------------------------------------------|
B|-----------------------------------------------|
G|-------------------7-7-7-7-7-7-7-7-------------|
D|-----------6-6-6-6-----------------9-9---9-9---|
A|---7-7-7-7-------------------------7-7---7-7---|
E|-----------------------------------------------|
Tap to rate this tab
 
# A B C D E F G H I J K L M N O P Q R S T U V W X Y Z