Droid - My Oath tab

*NOTE* This tab is not the entire song, but i have done all i can to the best of 
my ability, if someone can finish this, by all means go for it.

Any questions can be mailed to me at nolanbell.17@gmail.com, and this is my first 
tab so feedback is appreciated.

Intro<-------------------------------Hammer-ons and pull-offs are optional,
                                     I just play all the notes individually,
Eb|---------------------|            which i think sounds better.
Bb|---------------------|
Gb|---------------------| X4
Db|1p0-0-0--0h1p0-0-0---|
Ab|1p0-0-0--0h1p0-0-0---|
Db|1p0-0-0--0h1p0-0-0---|


Eb|---------------------|
Bb|---------------------|
Gb|---------------------| X4
Db|1p0-0-0--0h1p0-0h1p0-|
Ab|1p0-0-0--0h1p0-0h1p0-|
Db|1p0-0-0--0h1p0-0h1p0-|

Pre-Verse

Eb|---------------------|
Bb|---------------------|
Gb|---------------------| X1
Db|6-5-0-5h6p5-0-3-0----|
Ab|---------------------|
Db|---------------------|


Eb|---------------------|
Bb|---------------------|
Gb|---------------------| X8
Db|6-5-0-5h6p5-0-3-0----|
Ab|6-5-0-5h6p5-0-3-0----|
Db|6-5-0-5h6p5-0-3-0----|


Verse

Eb|----------------|
Bb|----------------|
Gb|----------------| X8
Db|----------------|
Ab|0000--000000----|
Db|0000--000000----|
P.M....  ......


Eb|----------------------------------|
Bb|----------------------------------|
Gb|7-7---------------8-8-------------| X4
Db|----------------------------------|
Ab|5-5---------------6-6-------------|
Db|-----5-6-5-0-3-0-------5-6-5-0-3-0|
                       P.M...........

Pre-Chorus

Eb|--------------------------|
Bb|--------------------------|
Gb|--------------------------| X6
Db|--------------------------|
Ab|0-5h6-6p5-3h5-5p3-1h3p1-0-|
Db|--------------------------|


Eb|--------------------------|
Bb|--------------------------|
Gb|--------------------------| X1
Db|0-5h6-6p5-3h5-5p3-1h3p1-0-|
Ab|--------------------------|
Db|--------------------------|


Chorus

Eb|---------------------|
Bb|---------------------|
Gb|---------------------| X4<---Let 0's ring
Db|1p0-0-0--0h1p0-0-0---|
Ab|1p0-0-0--0h1p0-0-0---|
Db|1p0-0-0--0h1p0-0-0---|


Verse

Eb|----------------|
Bb|----------------|
Gb|----------------| X8
Db|----------------|
Ab|0000--000000----|
Db|0000--000000----|
P.M....  ......


Eb|---------------------------|
Bb|---------------------------|
Gb|7-7--8-8---7-7---8-8---11--| X2
Db|---------------------------|
Ab|5-5--6-6---5-5---6-6---9---|
Db|---------------------------|
                       

So this concludes my first tab, hope you like it, and remember, if you think you 
can finish tabbing this song please do.
Tap to rate this tab
 
# A B C D E F G H I J K L M N O P Q R S T U V W X Y Z