Song name
# A B C D E F G H I J K L M N O P Q R S T U V W X Y Z

Drones - The Millers Daughter tab

The Drones
The Millers Daughter

This should give you something to work with. Theres a lot of guitar in there. If there 
any questions or comments you can email me at gofuckyourself_idontcare@hotmail.com


E---------------------------------------------------|
B---------------------------------------------------|
G---------------------------------------------------|
D-------------2-------------------------------------|
A-----------------0---2----0------------------------|
E---0----3------------------------------------------|

E-----------------------------------------------------|
B-----------------------------------------------------|
G--8--9-----------------------------------------------|
D--8--9------2----------------------------------------|
A--6--7------------0--2--0----------------------------|
E-----------0---3-------------------------------------|
Tap to rate this tab
# A B C D E F G H I J K L M N O P Q R S T U V W X Y Z