Song name
# A B C D E F G H I J K L M N O P Q R S T U V W X Y Z

Drop Dead Gorgeous - Show Must Go On tab

Note: This is the same intro tab, but i finished the rest of the song!;)

----------------------------------------------------------------------------
                   Show Must Go On - Drop Dead, Gorgeous
----------------------------------------------------------------------------

I saw Drop Dead, Gorgeous live so im defiantly sure that this is how they play it. Enjoy!

Tabbed by: In Dying Arms
email: killingapathy13@yahoo.com

 Tuning: CGCDAF

\ - slide down
/ - slide up
h - hammer on
p - pull of
* - palm mute
~ - ring out
t - finger tap


Intro: 00:00-00:19 - Guitar 1 (Dan)
d|---------------------------|------------------------------|
a|---------------------------|------------------------------|
f|--10\9--7/9-10/12-10\9--7/9|--10\9--7/9--9/10-10/12---7/9-|
c|---x\x--x/x--x/x---x\x--x/x|---x\x--x/x--x/x---x/x----x/x-|
g|---8\7--5/7--8/10--8\7--5/7|---8\7--5/7--7/8---8/10--10/12|
C|-00----0----0-----0----0---|-00----0----0-----0----0------| 
   **    *    *     *    *     **    *    *     *    *

d|---------------------------|------------------------------|
a|---------------------------|------------------------------|
f|--10\9--7/9-10/12-10\9--7/9|--10\9--7/9--9/10-10/12---7/9-|
c|---x\x--x/x--x/x---x\x--x/x|---x\x--x/x--x/x---x/x----x/x-|
g|---8\7--5/7--8/10--8\7--5/7|---8\7--5/7--7/8---8/10--10/12|
C|-00----0----0-----0----0---|-00----0----0-----0----0------| 
   **    *    *     *    *     **    *    *     *    *    



 00:05-00:09 + 00:15-00:19 - Guitar 2  (Kyle) {Harmonized} 
d|------------------------------------|
a|------------------------------------|
f|----14\12-10/12--14/15--14\12--10/12|
c|-----x\x---x/x----x/x----x\x---x/x--|
g|----12\10--8/10--12/13--12\10--8/10-|
C|-00-------0-----0------0------0-----|
   **       *     *      *      *  
d|------------------------------------|
a|------------------------------------|
f|----14\12-10/12--12/14--14/15--15/17|
c|-----x\x---x/x----x/x----x/x----x/x-|
g|----12\10--8/10--10/12--12/13--13/15|
C|-00-------0-----0------0------0-----| Entire Intro [x2] 
   **       *     *      *      *   
Bridge: 00:20-00:30 ~ Both Guitars     
d|---------|---------|---------|---------|
a|---------|---------|---------|---------|
f|---------|---------|---------|---------|
c|-0-0-0-0-|-0-0-0-0-|-0-0-0-0-|-0-0-0-0-|
g|-0-0-0-0-|-0-0-0-0-|-0-0-0-0-|-0-0-0-0-|
C|-0-0-0-0-|-0-0-0-0-|-0-0-0-0-|-0-0-0-0-|
   * * * *   * * * *   * * * *   * * * *

 00:30-00:39
d|---------|---------------------|
a|---------|-14-14--14-14--14-14-|
f|---------|-11-11--11-11--11-11-|
c|-0-0-0-0-|---------------------|
g|-0-0-0-0-|---------------------|
C|-0-0-0-0-|---------------------| [x4]
   * * * *   
Intro again: 00:40-00:59 - Guitar 1 (Dan)
d|---------------------------------|------------------------------|
a|---------------------------------|------------------------------|
f|--------10\9--7/9-10/12-10\9--7/9|--10\9--7/9--9/10-10/12---7/9-|
c|---------x\x--x/x--x/x---x\x--x/x|---x\x--x/x--x/x---x/x----x/x-|
g|-12\-----8\7--5/7--8/10--8\7--5/7|---8\7--5/7--7/8---8/10--10/12|
C|-12\--00-----0----0-----0----0---|-00----0----0-----0----0------| 
        **    *    *     *    *     **    *    *     *    *

d|---------------------------|------------------------------|
a|---------------------------|------------------------------|
f|--10\9--7/9-10/12-10\9--7/9|--10\9--7/9--9/10-10/12---7/9-|
c|---x\x--x/x--x/x---x\x--x/x|---x\x--x/x--x/x---x/x----x/x-|
g|---8\7--5/7--8/10--8\7--5/7|---8\7--5/7--7/8---8/10--10/12|
C|-00----0----0-----0----0---|-00----0----0-----0----0------| 
   **    *    *     *    *     **    *    *     *    *    

  00:46-00:50 + 00:55-00:59 - Guitar 2  (Kyle) {Harmonized} 
d|------------------------------------|
a|------------------------------------|
f|----14\12-10/12--14/15--14\12--10/12|
c|-----x\x---x/x----x/x----x\x---x/x--|
g|----12\10--8/10--12/13--12\10--8/10-|
C|-00-------0-----0------0------0-----|
   **       *     *      *      *  
d|------------------------------------|
a|------------------------------------|
f|----14\12-10/12--12/14--14/15--15/17|
c|-----x\x---x/x----x/x----x/x----x/x-|
g|----12\10--8/10--10/12--12/13--13/15|
C|-00-------0-----0------0------0-----| Entire Second Intro [x2]  
   **       *     *      *      *   

Verse: 01:00-01:43 - Guitar 1 (Dan)
d|-------|-------|-------|-------|-------|-------|-------|-------| 
a|-------|-------|-------|-------|-------|-------|-------|-------| 
f|--14~--|--12~--|--14~--|--15~--|--14~--|--15~--|--12~--|--10~--| 
c|---x~--|---x~--|---x~--|---x~--|---x~--|---x~--|---x~--|---x~--| 
g|--12~--|--10~--|--12~--|--13~--|--12~--|--13~--|--10~--|---8~--| 
C|-------|-------|-------|-------|-------|-------|-------|-------| 
 
f|-------|-------|-------|-------|-------|-------|-------|-------|   
a|-------|-------|-------|-------|-------|-------|-------|-------|
d|--14~--|--12~--|--14~--|--10~--|--14~--|--12~--|--14~--|--10~--| 
c|---x~--|---x~--|---x~--|---x~--|---x~--|---x~--|---x~--|---x~--| 
g|--12~--|--10~--|--12~--|---8~--|--12~--|--10~--|--12~--|---8~--| 
C|-------|-------|-------|-------|-------|-------|-------|-------| 


  01:10-1:22 - Guitar 2 (Kyle) {finger tapping}
d|----------|      |----------|      |----------|      |----------|
a|----------|      |----------|      |----------|      |----------|
f|----------|      |----------|      |----------|      |----------|
c|--t10-p2--|      |--t9--p3--|      |--t10-p2--|      |--t7--p3--|
g|----------|      |----------|      |----------|      |----------|
C|----------| [x8] |----------| [x8] |----------| [x8] |----------| [x8]

Breakdown: 01:43-02:04 - Both Guitars
d|-------------|-------------|-------------|-------------|---------------|
a|-------------|-------------|-------------|-------------|---------------|
f|-------------|-------------|-------------|-------------|---------------|
c|-------------|-------------|-------------|-------------|---------------|
g|--0----/12\--|---0-0-0-0---|-/12\--0-0-0-|--0--0--/12\-|-0-0-0-0--/12\-|
C|--0----/12\--|---0-0-0-0---|-/12\--0-0-0-|--0--0--/12\-|-0-0-0-0--/12\-|
    *              * * * *           * * *    *  *         * * * *
d|----------------|-------------|-------------|-------------|-------------|
a|---11-11--14-14-|-------------|-------------|-------------|-------------|
f|---14-14--11-11-|-------------|-------------|-------------|-------------|
c|----------------|-------------|-------------|-------------|-------------|
g|-0-------0------|--0----/12\--|---0-0-0-0---|-/12\--0-0-0-|--0--0--/12\-|
C|-0-------0------|--0----/12\--|---0-0-0-0---|-/12\--0-0-0-|--0--0--/12\-|
   *       *         *              * * * *           * * *    *  *
d|-------------|----------------|-----------|
a|-------------|----------------|-----------|
f|-------------|----------------|-----------|
c|-------------|----------------|--0--0--0--|
g|---0-0-0-0---|--/12\---0-0-0--|--0--0--0--|
C|---0-0-0-0---|--/12\---0-0-0--|--0--0--0--|
     * * * *             * * *     *  *  *
Interlude: 02:05-02:36 - (played on keyboard) i tabbed it for guitar
d|-------------------------|-------------------------|-----------------|
a|-------------------------|-------------------------|-----------------|
f|-10-10-10-10-10-10-10-10-|-10-10-10-10-10-10-10-10-|-----------------|
c|-------------------------|-------------------------|-8-8-8-8-8-8-8-8-|
g|-------------------------|-------------------------|-----------------|
C|-------------------------|-------------------------|-----------------|

d|-------------------------|\
a|-------------------------| \
f|-------------------------|  \
c|-10-10-10-10-10-10-10-10-|  / [x6]
g|-------------------------| /
C|-------------------------|/

Outro: 02:37-{until the end of song} - Guitar 1
d|-----------|      |-----------|      |-------------|
a|-----------|      |-----------|      |-------------|
f|-----------|      |-----------|      |-------------|
c|--0-0-0-0--|      |--8-8-8-8--|      |-10-10-10-10-|
g|--0-0-0-0--|      |--8-8-8-8--|      |-10-10-10-10-|
C|--0-0-0-0--| [x4] |--8-8-8-8--| [x2] |-10-10-10-10-| [x2]

   Guitar 2
d|-----------|      |-------------|      |-------------|
a|-----------|      |-------------|      |-------------|
f|--7-7-7-7--|      |-15-15-15-15-|      |-17-17-17-17-|
c|--x-x-x-x--|      |--x--x--x--x-|      |--x--x--x--x-|
g|--5-5-5-5--|      |-13-13-13-13-|      |-15-15-15-15-|
C|-----------| [x4] |-------------| [x2] |-------------| [x2]

                   Have Fun! -this sounds about perfect!

                 ~ listen to the song to figure out the timing.

                    

Tap to rate this tab
# A B C D E F G H I J K L M N O P Q R S T U V W X Y Z