Song name
# A B C D E F G H I J K L M N O P Q R S T U V W X Y Z

Drop Dead Gorgeous - Handguns Are For Killers tab

hey Im not a good tabber but I tried to tab this song...........

dropped d tuning

Intro/verse:
-------------------------------------|
-------------------------------------|
-7-7-7--8-8-8-8----7-7-7----5-5-5-5--|
-7-7-7--8-8-8-8----7-7-7----5-5-5-5--|
-5-5-5--6-6-6-6----5-5-5----3-3-3-3--|
-0-0-0--0-0-0-0----0-0-0----0-0-0-0--|

then:

-------------------------------------------|
----------------------------9-9-9-9-9------|
----------------------------6-6-6-6-6------|
-0---------6----------0----------------6---|
-0---------6----------0----------------6---|
-0---------6----------0----------------6---|


then

---------------------|
------9-9---------9--|
------6-6---------6--|
---------------------|
---------------------|
--0-0-----0-0-0------|

then

-------------------------------------|
-------------------------------------|
-7-7-7--8-8-8-8----7-7-7----5-5-5-5--|
-7-7-7--8-8-8-8----7-7-7----5-5-5-5--|
-5-5-5--6-6-6-6----5-5-5----3-3-3-3--|
-0-0-0--0-0-0-0----0-0-0----0-0-0-0--|
Tap to rate this tab
# A B C D E F G H I J K L M N O P Q R S T U V W X Y Z