Song name
# A B C D E F G H I J K L M N O P Q R S T U V W X Y Z

Drop Dead Gorgeous - Love Is Murder tab

#----------------------------------PLEASE NOTE---------------------------------#
#This file is the author's own work and represents their interpretation of the #
#song. You may only use this file for private study, scholarship, or research. #
#------------------------------------------------------------------------------#

LOVE IS MURDER
As recorded by Drop Dead, Gorgeous
(From the 2006 Album BE MINE, VALENTINE)

Transcribed by Jonathan Rose
	

Words and Music by Drop Dead, Gorgeous

Gtr I (C G C F A D) - 'Dist. 1'
Gtr II (C G C F A D) - 'Dist. 2'

 "I'll be your Romeo.."
  Dancefight Q=200
  D5                                                  N.C.
 4/4
  Gtrs I, II
  PM---------------------------------|              PM
  E E H.        Q.   E E E E E   E E H.        H    E Q.
|-------------|----------------|-------------|-------------|
|-------------|----------------|-------------|--------4----|
|-------------|----------------|-------------|--------7----|
|-------------|----------------|-------------|-------------|
|-0-0---------|------0-0-0-0-0-|-0-0---------|------0------|
|-0-0---------|------0-0-0-0-0-|-0-0---------|------0------|


  D5                                              N.C. D5N.C.
  PM--|          PM-----------------------------|      PM
  E E E H    E   Q.   E E E E E   E E H.        E Q.   E Q.
|--------------|----------------|-------------|---------------|
|--------------|----------------|-------------|---4------4----|
|--------------|----------------|-------------|---7------7----|
|--------------|----------------|-------------|---------------|
|-0-0-0--------|------0-0-0-0-0-|-0-0---------|-0------0------|
|-0-0-0--------|------0-0-0-0-0-|-0-0---------|-0------0------|


  D5                                                   N.C.
  PM--|          PM-------------------|              PM
  E E E H    E   Q.   E E E E E   E E H.        H    E Q.
|--------------|----------------|-------------|-------------|
|--------------|----------------|-------------|--------4----|
|--------------|----------------|-------------|--------7----|
|--------------|----------------|-------------|-------------|
|-0-0-0--------|------0-0-0-0-0-|-0-0---------|------0------|
|-0-0-0--------|------0-0-0-0-0-|-0-0---------|------0------|


  D5                                                   D5N.C.
  Gtr I
  PM--|          PM-----------------------------|      PM
  E E E H    E   Q.   E E E E E   E E H.        E Q.   E Q.
|--------------|----------------|-------------|---------------||
|--------------|----------------|-------------|---4------4----||
|--------------|----------------|-------------|---7------7----||
|--------------|----------------|-------------|---------------||
|-0-0-0--------|------0-0-0-0-0-|-0-0---------|-0------0------||
|-0-0-0--------|------0-0-0-0-0-|-0-0---------|-0------0------||
|
| Gtr II
| PM--|          PM-----------------------------|      PM
| E E E H    E   Q.   E E E E E   E E H.        E Q.   E Q.
|--------------|----------------|-------------|---------------||
|--------------|----------------|-------------|---4------4----||
|--------------|----------------|-------------|---7------7----||
|--------------|----------------|-------------|---------------||
|-0-0-0--------|------0-0-0-0-0-|-0-0---------|-0------0------||
|-0-0-0--------|------0-0-0-0-0-|-0-0---------|-0------0------||


 Bridge
  N.C.
   \3________________________|
  +W              +W         a
|---------------|---------------||
|-(4)-----------|-(4)--------x--||
|-(7)-----------|-(7)--------x--||
|---------------|---------------||
|---------------|---------------||
|---------------|---------------||
|
| +W              +W         a
|---------------|---------------||
|-(4)b10--------|-(4)--------xr-||
|-(7)b13--------|-(7)--------xr-||
|---------------|---------------||
|---------------|---------------||
|---------------|---------------||


 "Lying dead in my room.."
  Slightly Faster Q=210
  N.C.
  Gtrs I, II
   E  E  E  E E E E  E   E E E E E E E E
|----------------------|-----------------|
|----------------------|-----------------|
|-12-12-12-10---9---10-|---9-9-9-9-9-9-9-|
|--x--x--x--x---x----x-|---x-x-x-x-x-x-x-|
|-10-10-10--8---7----8-|---7-7-7-7-7-7-7-|
|----------------------|-----------------|


   E  E  E  E E E E  E   E E E E  E  E  E  E
|----------------------|---------------------|
|----------------------|---------------------|
|-12-12-12-10---9---10-|---9-9-9-10-10-10-10-|
|--x--x--x--x---x----x-|---x-x-x--x--x--x--x-|
|-10-10-10--8---7----8-|---7-7-7--8--8--8--8-|
|----------------------|---------------------|


  N.C.
   E  E  E  E  E  E  E  E   E E E E E E E E
|-------------------------|-----------------|
|-------------------------|-----------------|
|-10-10-10-10-10-10-10-10-|-9-9-9-9-9-9-9-9-|
|--x--x--x--x--x--x--x--x-|-x-x-x-x-x-x-x-x-|
|--8--8--8--8--8--8--8--8-|-7-7-7-7-7-7-7-7-|
|-------------------------|-----------------|


   E  E  E  E  E  E  E  E    E  E  E  E  E  E  E  E
|-------------------------|-------------------------|
|-------------------------|-------------------------|
|-12-12-12-12-12-12-12-12-|-14-14-14-14-14-14-14-14-|
|--x--x--x--x--x--x--x--x-|--x--x--x--x--x--x--x--x-|
|-10-10-10-10-10-10-10-10-|-12-12-12-12-12-12-12-12-|
|-------------------------|-------------------------|


  N.C.
  Gtr I
   E  E  E  E E E E  E   E E E E E E E E
|----------------------|-----------------|
|----------------------|-----------------|
|-12-12-12-10---9---10-|---9-9-9-9-9-9-9-|
|--x--x--x--x---x----x-|---x-x-x-x-x-x-x-|
|-10-10-10--8---7----8-|---7-7-7-7-7-7-7-|
|----------------------|-----------------|
|
| Gtr II
|  E  E  E  E E E E  E   E E E E E E E E
|----------------------|-----------------|
|----------------------|-----------------|
|-12-12-12-10---9---10-|---9-9-9-9-9-9-9-|
|--x--x--x--x---x----x-|---x-x-x-x-x-x-x-|
|-10-10-10--8---7----8-|---7-7-7-7-7-7-7-|
|----------------------|-----------------|


   E  E  E  E E  E E  E   E  E  E  E  E  E  E  E
|-----------------------|------------------------|
|-----------------------|------------------------|
|-12-12-12-10----9---10-|----9--9--9-10-10-10-10-|
|--x--x--x--x----x----x-|----x--x--x--x--x--x--x-|
|-10-10-10--8----7----8-|----7--7--7--8--8--8--8-|
|-----------------------|------------------------|
|
|  E  E  E  E E  E E  E   E  E  E  E  E  E  E  E
|-----------------------|------------------------|
|-----------------------|------------------------|
|-15-15-15-14---12---14-|---12-12-12-14-14-14-14-|
|--x--x--x--x----x----x-|----x--x--x--x--x--x--x-|
|-13-13-13-12---10---12-|---10-10-10-12-12-12-12-|
|-----------------------|------------------------|


  N.C.
  Gtrs I, II
   E  E  E  E  E  E  E  E   E E E E E E E E
|-------------------------|-----------------|
|-------------------------|-----------------|
|-10-10-10-10-10-10-10-10-|-9-9-9-9-9-9-9-9-|
|--x--x--x--x--x--x--x--x-|-x-x-x-x-x-x-x-x-|
|--8--8--8--8--8--8--8--8-|-7-7-7-7-7-7-7-7-|
|-------------------------|-----------------|


   E  E  E  E  E  E  E  E   E E E E  E  E  E  E
|-------------------------|---------------------|
|-------------------------|---------------------|
|-12-12-12-12-12-12-12-12-|-9-9-9-9-10-10-10-10-|
|--x--x--x--x--x--x--x--x-|-x-x-x-x--x--x--x--x-|
|-10-10-10-10-10-10-10-10-|-7-7-7-7--8--8--8--8-|
|-------------------------|---------------------|


  N.C.
  Gtr I
   E  E  E  E E  E E  E   E  E  E  E  E  E  E  E
|-----------------------|------------------------|
|-----------------------|------------------------|
|-12-12-12-10----9---10-|----9--9--9--9--9--9--9-|
|--x--x--x--x----x----x-|----x--x--x--x--x--x--x-|
|-10-10-10--8----7----8-|----7--7--7--7--7--7--7-|
|-----------------------|------------------------|
|
| Gtr II
|  E  E  E  E E  E E  E   E  E  E  E  E  E  E  E
|-----------------------|------------------------|
|-----------------------|------------------------|
|-15-15-15-14---12---14-|---12-12-12-12-12-12-12-|
|--x--x--x--x----x----x-|----x--x--x--x--x--x--x-|
|-13-13-13-12---10---12-|---10-10-10-10-10-10-10-|
|-----------------------|------------------------|


   E  E  E  E E  E E  E   E  E  E  E  E  E  E  E
|-----------------------|------------------------|
|-----------------------|------------------------|
|-12-12-12-10----9---10-|----9--9--9-10-10-10-10-|
|--x--x--x--x----x----x-|----x--x--x--x--x--x--x-|
|-10-10-10--8----7----8-|----7--7--7--8--8--8--8-|
|-----------------------|------------------------|
|
|  E  E  E  E E  E E  E   E  E  E  E  E  E  E  E
|-----------------------|------------------------|
|-----------------------|------------------------|
|-15-15-15-14---12---14-|---12-12-12-14-14-14-14-|
|--x--x--x--x----x----x-|----x--x--x--x--x--x--x-|
|-13-13-13-12---10---12-|---10-10-10-12-12-12-12-|
|-----------------------|------------------------|


  N.C.
  Gtrs I, II
   E  E  E  E  E  E  E  E   E E E E E E E E
|-------------------------|-----------------|
|-------------------------|-----------------|
|-10-10-10-10-10-10-10-10-|-9-9-9-9-9-9-9-9-|
|--x--x--x--x--x--x--x--x-|-x-x-x-x-x-x-x-x-|
|--8--8--8--8--8--8--8--8-|-7-7-7-7-7-7-7-7-|
|-------------------------|-----------------|


   E  E  E  E  E  E  E  E    E  E  E  E  E  E  E  E
|-------------------------|-------------------------||
|-------------------------|-------------------------||
|-12-12-12-12-12-12-12-12-|-14-14-14-14-14-14-14-14-||
|--x--x--x--x--x--x--x--x-|--x--x--x--x--x--x--x--x-||
|-10-10-10-10-10-10-10-10-|-12-12-12-12-12-12-12-12-||
|-------------------------|-------------------------||


 *Outro Breakdown*
  Beatdown Q=128
  D5                  N.C.       D5                  N.C.
 6/8
  Gtr I
    PM|   PM|     PM|              PM|   PM|     PM|
  E E E E E E   E E E  E  E  E   E E E E E E   E E E  E  E  E
|-------------|----------------|-------------|----------------|
|-------------|-------11-11-11-|-------------|-------11-11-11-|
|-------------|-------14-14-14-|-------------|-------14-14-14-|
|-0-----0-----|-0--------------|-0-----0-----|-0--------------|
|-0-0-0-0-0-0-|-0-0-0----------|-0-0-0-0-0-0-|-0-0-0----------|
|-0-0-0-0-0-0-|-0-0-0----------|-0-0-0-0-0-0-|-0-0-0----------|
|
| Gtr II
|   PM|   PM|     PM|              PM|   PM|     PM|
| E E E E E E   E E E  E  E  E   E E E E E E   E E E  E  E  E
|-------------|----------------|-------------|----------------|
|-------------|-------11----11-|-------------|-------11----11-|
|-------------|-------14----14-|-------------|-------14----14-|
|-0-----0-----|-0--------------|-0-----0-----|-0--------------|
|-0-0-0-0-0-0-|-0-0-0----------|-0-0-0-0-0-0-|-0-0-0----------|
|-0-0-0-0-0-0-|-0-0-0----------|-0-0-0-0-0-0-|-0-0-0----------|


  D5                  N.C.       D5
    PM|   PM|     PM|              PM|   PM----|    PM
  E E E E E E   E E E  E  E  E   E E E E E E   E Q  E Q
|-------------|----------------|-------------|-----------|
|-------------|-------11-11-11-|-------------|-----------|
|-------------|-------14-14-14-|-------------|-----------|
|-0-----0-----|-0--------------|-0-----0-----|-----------|
|-0-0-0-0-0-0-|-0-0-0----------|-0-0-0-0-0-0-|-0----0----|
|-0-0-0-0-0-0-|-0-0-0----------|-0-0-0-0-0-0-|-0----0----|
|
|   PM|   PM|     PM|              PM|   PM----|    PM
| E E E E E E   E E E  E  E  E   E E E E E E   E Q  E Q
|-------------|----------------|-------------|-----------|
|-------------|-------11----11-|-------------|-----------|
|-------------|-------14----14-|-------------|-----------|
|-0-----0-----|-0--------------|-0-----0-----|-----------|
|-0-0-0-0-0-0-|-0-0-0----------|-0-0-0-0-0-0-|-0----0----|
|-0-0-0-0-0-0-|-0-0-0----------|-0-0-0-0-0-0-|-0----0----|


    D5                  N.C.       D5                  N.C.
    Gtr I
      PM|   PM|     PM|              PM|   PM|     PM|
    E E E E E E   E E E  E  E  E   E E E E E E   E E E  E  E  E
||--------------|----------------|-------------|------------------||
||o-------------|-------11-11-11-|-------------|-------11-11-11--o||
||--------------|-------14-14-14-|-------------|-------14-14-14---||
||--0-----0-----|-0--------------|-0-----0-----|-0----------------||
||o-0-0-0-0-0-0-|-0-0-0----------|-0-0-0-0-0-0-|-0-0-0-----------o||
||--0-0-0-0-0-0-|-0-0-0----------|-0-0-0-0-0-0-|-0-0-0------------||
|
|   Gtr II
|     PM|   PM|     PM|              PM|   PM|     PM|
|   E E E E E E   E E E  E  E  E   E E E E E E   E E E  E  E  E
||--------------|----------------|-------------|------------------||
||o-------------|-------11----11-|-------------|-------11----11--o||
||--------------|-------14----14-|-------------|-------14----14---||
||--0-----0-----|-0--------------|-0-----0-----|-0----------------||
||o-0-0-0-0-0-0-|-0-0-0----------|-0-0-0-0-0-0-|-0-0-0-----------o||
||--0-0-0-0-0-0-|-0-0-0----------|-0-0-0-0-0-0-|-0-0-0------------||


  D5                  N.C.       D5                   N.C.
    PM|   PM|     PM|              PM|   PM------|
  E E E E E E   E E E  E  E  E   E E E E E S S   E Q   E  E  E
|-------------|----------------|---------------|----------------|
|-------------|-------11-11-11-|---------------|------11-11-11--|
|-------------|-------14-14-14-|---------------|------14-14-14--|
|-0-----0-----|-0--------------|-0-----0-------|----------------|
|-0-0-0-0-0-0-|-0-0-0----------|-0-0-0-0-0-0-0-|-0--------------|
|-0-0-0-0-0-0-|-0-0-0----------|-0-0-0-0-0-0-0-|-0--------------|
|
|   PM|   PM|     PM|              PM|   PM------|
| E E E E E E   E E E  E  E  E   E E E E E E     E Q   E  E  E
|-------------|----------------|---------------|----------------|
|-------------|-------11----11-|---------------|------11-11-11--|
|-------------|-------14----14-|---------------|------14-14-14--|
|-0-----0-----|-0--------------|-0-----0-------|----------------|
|-0-0-0-0-0-0-|-0-0-0----------|-0-0-0-0-0-0---|-0--------------|
|-0-0-0-0-0-0-|-0-0-0----------|-0-0-0-0-0-0---|-0--------------|


                                                                Original Tempo Q=194
  D5                  N.C.       D5                  N.C.       D5
                                                               4/4
    PM|   PM|     PM|              PM|   PM|     PM|            PM--|
  E E E E E E   E E E  E  E  E   E E E E E E   E E E  E  E  E   E E E H    E
|-------------|----------------|-------------|----------------|---------------*|
|-------------|-------11-11-11-|-------------|-------11-11-11-|---------------*|
|-------------|-------14-14-14-|-------------|-------14-14-14-|---------------*|
|-0-----0-----|-0--------------|-0-----0-----|-0--------------|---------------*|
|-0-0-0-0-0-0-|-0-0-0----------|-0-0-0-0-0-0-|-0-0-0----------|-0-0-0---------*|
|-0-0-0-0-0-0-|-0-0-0----------|-0-0-0-0-0-0-|-0-0-0----------|-0-0-0---------*|
|
|   PM|   PM|     PM|              PM|   PM|     PM|            PM--|
| E E E E E E   E E E  E  E  E   E E E E E E   E E E  E  E  E   E E E H    E
|-------------|----------------|-------------|----------------|---------------*|
|-------------|-------11----11-|-------------|-------11----11-|---------------*|
|-------------|-------14----14-|-------------|-------14----14-|---------------*|
|-0-----0-----|-0--------------|-0-----0-----|-0--------------|---------------*|
|-0-0-0-0-0-0-|-0-0-0----------|-0-0-0-0-0-0-|-0-0-0----------|-0-0-0---------*|
|-0-0-0-0-0-0-|-0-0-0----------|-0-0-0-0-0-0-|-0-0-0----------|-0-0-0---------*|



Duration Legend
---------------
W - whole; H - half; Q - quarter; E - 8th; S - 16th; T - 32nd; X - 64th; a - acciaccatura
+ - note tied to previous; . - note dotted; .. - note double dotted
Uncapitalized letters represent notes that are staccato (1/2 duration)
Irregular groupings are notated above the duration line
Duration letters will always appear directly above the note/fret number it represents the
duration for.  Duration letters with no fret number below them represent rests.  Multi-
bar rests are notated in the form Wxn, where n is the number of bars to rest for.  Low
melody durations appear below the staff

Tablature Legend
----------------
 h   - hammer-on
 p   - pull-off
 b   - bend
 pb  - pre-bend
 r   - bend release (if no number after the r, then release immediately)
 /\  - slide into or out of (from/to "nowhere")
 s   - legato slide
 S   - shift slide
 - natural harmonic
[n]  - artificial harmonic
n(n) - tapped harmonic
 ~   - vibrato
 tr  - trill
 T   - tap
 TP  - trem. picking
 PM  - palm muting
\n/  - tremolo bar dip; n = amount to dip
 \n  - tremolo bar down
 n/  - tremolo bar up
/n\  - tremolo bar inverted dip
 =   - hold bend; also acts as connecting device for hammers/pulls
 <> - volume swell (louder/softer)
 x   - on rhythm slash represents muted slash
 o   - on rhythm slash represents single note slash

Misc Legend
-----------
 |  - bar
||  - double bar
||o - repeat start
o|| - repeat end
*|  - double bar (ending)
 :  - bar (freetime)
 $  - Segno
 &  - Coda
Tempo markers -  = BPM(8/16=s8/s16), where s8 = swing 8ths, s16 = swing 16ths


** Generated using Power Tab Editor by Brad Larsen: The Official Power Tab Web Site
Tap to rate this tab
 
# A B C D E F G H I J K L M N O P Q R S T U V W X Y Z