Guitaretab - guitar tabs
Song name
# A B C D E F G H I J K L M N O P Q R S T U V W X Y Z

Drop Dead Gorgeous - Dressed For Friend Requests tab

Dressed For Friend Requests
Drop Dead, Gorgeous

I made this into "standard" tuning because
once you convert it on the piano
you can just read it more easily from "Drop C" tuning

I tried to make this for a combo of both hands on the piano
but in time, I'll like convert it like, Gtr 1= left hand
and Gtr 2= right hand... something like that.

E|---1-6----1-6---6-10-10---8---8-6---|
B|-3------3-----3---------3---1-------|
G|----------------------------2-----3-|
D|----------------------------------5-|
A|-0--------------------------0-----0-|
E|------------------------------------|

E|-5--------0-1-----13-----12-0-8-----|
B|----3-3--------------------------1---|
G|-2------------------------------------|
D|-3-0------------------------3--------|
A|--------------------------------------|
E|-0-----0------0-0----0-0-----0----00-|

E|-1-1----1-1-3-5-----5-----3-----1----|
B|-1----------------------------1-----1----|
G|------------------------2----------------|
D|-3---------------------------------------|
A|-----------------------------------------|
E|-3-3-3----3-3-3-3-3-3-3--3--3--3-|
[ Tab from: http://www.guitaretab.com/d/drop-dead-gorgeous/72735.html ]
E|-0-----0--1-----1--3-----3--5-----5--3--1-|
B|------------------------------------------|
G|----2--2-----2--2-----2--2-----2--2--2--2-|
D|------------------------------------------|
A|-2--------2--------2--------2--------2--2-|
E|------------------------------------------|

E|-3-------3--6-------6------5-------1---|
B|--------------------8------6-------3---|
G|-0--0----------0----0------------------|
D|---------------------------3-----------|
A|-0--0-0--0--0--0-0-----0-0----0-0----0-|
E|-----------------------------------0---|

E|-1---------1------13------12------8-|
B|-3-------3--------------------------|
G|------------------------------------|
D|------------------------------------|
A|----0-0-------0-0-------------------|
E|-0--0-0-------0-0----0-0-----0-0----|




E|-5--------1------5------6-------5------1-----|
B|---------------------------------------------|
G|---2---------------2------2-------2------2---|
D|-----------------------------------------3---|
A|---------------------------------------------|
E|---3--3-3----3-3-----3------3-3-----3-3----3-|

E|-1--5-8-5-8-12-5-|
B|-----------------|
G|-2---------------|
D|-3---------------|
A|-2---------------|
E|-----------------|

Related for Dressed For Friend Requests tab